Song name
# A B C D E F G H I J K L M N O P Q R S T U V W X Y Z

Bad Religion - Someone To Believe tab

-----------------------------------------------------------------------------
			     Someone to Believe - Bad Religion
-----------------------------------------------------------------------------
Tabbed by:  Ryan Martin
Email:  walkingXdisaster@live.com

Tuning: Standard
Intro/Verse
e|-------------------------------------------------------------------------|
B|-------------------------------------------------------------------------|
G|--------6----------------------------------------------------------------|
D|-666666-6----------------------------------------------------------------|
A|-666666-4----------------------------------------------------------------|
E|-444444------------------------------------------------------------------|

Chorus
e|-------------------------------------------------------------------------|
B|-------------------------------------------------------------------------|
G|--8888--4444------6666---------------------------------------------------|
D|--8888--4444-4444-6666---------------------------------------------------|
A|--6666--2222-4444-4444---------------------------------------------------|
E|-------------2222--------------------------------------------------------|

Post-chorus
e|--------------------------------------------------------------------------|
B|--------------------------------------------------------------------------|
G|--8-99999999-6-44444444---------------------------------------------------|
D|--8-99999999-6-44444444-44444444------------------------------------------|
A|--6-77777777-4-22222222-44444444------------------------------------------|
E|------------------------22222222------------------------------------------|

Solo 
e|-------------------------------------------------------------------------|
B|-------------------------------------------------------------------------|
G|-8-8-8-6p5-6p5----5-6-8-8-10-10-11p10-8----------------------------------|
D|---------------6---------------------------------------------------------|
A|-------------------------------------------------------------------------|
E|-------------------------------------------------------------------------|


e|-------------------------------------------------------------------------|
B|-------------------------------------------------------------------------|
G|-8p10-11-11-11-10-8-8-6-6---6h8p6--8p10-11-11-11-10-6b8-6br8-6---6h8p6---|
D|-------------------------------------------------------------------------|
A|-------------------------------------------------------------------------|
E|-------------------------------------------------------------------------|

e|-------------------------------------------------------------------------|
B|-------------12----------------------------------------------------------|
G|-9b-9b-11h12---12-11-9-------------11h13---------------------------------|
D|-----------------------9---9-11h13-------13p11---------------------------|
A|------------------------------------------------13-----------------------|
E|-------------------------------------------------------------------------|
Tap to rate this tab
 
# A B C D E F G H I J K L M N O P Q R S T U V W X Y Z