Song name
# A B C D E F G H I J K L M N O P Q R S T U V W X Y Z

Bad Religion - Turn Your Back On Me tab

Artist: Bad Religion
Song: Turn Your Back On Me
Album: The Dissent Of Men

Tab: by Morris Du.


Intro

e|-----------------|    |-----------|
B|-----------------|    |-----------|
G|----555-77777777-|    |-----------|
D|-77-555-77777777-|(x3)|-555555555-|
A|-77-333-55555555-|    |-555555555-|
E|-55--------------|    |-333333333-|


Verse

e|------------------------------------------------------------|
B|------------------------------------------------------------|
G|-99-77-4/5--7---------------99-77-4/5--7--------------------|
D|-99-77-4/5--7--555555555555-99-77-4/5--7--55555555-22222222-|
A|-77-55-2/3--5--555555555555-77-55-2/3--5--55555555-22222222-|
E|---------------333333333333---------------33333333-00000000-|

e|--------------------------------------------------|
B|--------------------------------------------------|
G|-55555555-77777777-9-7-555555555-7777777777777777-|
D|-55555555-77777777-9-7-555555555-7777777777777777-|
A|-33333333-55555555-7-5-333333333-5555555555555555-|
E|--------------------------------------------------|

Pre Chorus

e|-----------------|    |-------------------------|
B|-----------------|    |-------------------------|
G|----555-77777777-|    |----555-7777777777777777-|
D|-77-555-77777777-|(x3)|-77-555-7777777777777777-|
A|-77-333-55555555-|    |-77-333-5555555555555555-|
E|-55--------------|    |-55----------------------|

Chorus

e|----------------------------------|    |--------|
B|----------------------------------|    |--------|
G|----------77777777----------55-77-|    |--------|
D|-55555555-77777777-77777777-55-77-|(x4)|-555555-|
A|-55555555-55555555-77777777-33-55-|    |-555555-|
E|-33333333----------55555555-------|    |-333333-|

Start again with the verse.
Tap to rate this tab
 
# A B C D E F G H I J K L M N O P Q R S T U V W X Y Z