Bad Religion - Only Rain tab

Bad Religion
Only Rain
Tuning: Standard

b-bend
r-release bend
h-hammer
p-pull off
~-ring

Intro
Brian Baker
e-----------------------------------------------------------------------------|
B-------17-----17-------------------------------------------------------------|
G-16b18----16b18---16b18-------14h16b18r16-16-14--------------14h16p14--------|
D------------------------14h16-------------------14h16---14h16----------16p14-|
A-----------------------------------------------------------------------------|
E-----------------------------------------------------------------------------|

e------------------------------------------------------------------------|
B------------------------------------------------------------------------|
G-------14h16p14--------------14h16p14--------------14h16p14-------------|
D-14h16----------16p14--14h16----------16p14--14h16----------16p14-14h16-|
A------------------------------------------------------------------------|
E------------------------------------------------------------------------|

e---------------|
B---------------|
G---------------|
D-9-9b11r9p7----|
A------------9~-|
E---------------|

Greg Hetson
e---------------------------------------|
B---------------------------------------|
G-----------77777777-7777---------------|
D-4444-2222-77777777-7777-2222-44444444-|
A-4444-2222-55555555-5555-2222-44444444-|   2x
E-2222-0000---------------0000-22222222-|

Verse 1 (Both Guitars)
Hey Scientist...
e-----------------------------------------------------------------------------|
B-----------------------------------------------------------------------------|
G-----------77777777-7777-----------------------------------------------------|
D-4444-2222-77777777-7777-2222-44444444----Palm mute with up and downstrokes--|
A-4444-2222-55555555-5555-2222-44444444-----------55555555-5555---------------|
E-2222-0000---------------0000-22222222-2222-0000---------------0000-22222222-|

Theres a...
e-------------------------------------------------|
B-------------------------------------------------|
G-7777---------------7777---------------7~--------|
D-7777-2222-44444444-7777-2222-44444444-7~-7~-2~--|
A-5555-2222-44444444-5555-2222-44444444-5~-7~-2~--|
E------0000-22222222------0000-22222222----5~-0~--| Pickslide into chorus

Chorus 1 (Both Guitars)
Rain fell...
e---------------------------------------|
B---------------------------------------|
G-----------77777777-7777---------------|
D-4444-2222-77777777-7777-2222-44444444-|
A-4444-2222-55555555-5555-2222-44444444-|   2x
E-2222-0000---------------0000-22222222-|

Verse 2 (Both Guitars)

Well I know...
e-----------------------------------------------------------------------------|
B-----------------------------------------------------------------------------|
G-----------77777777-7777-----------------------------------------------------|
D-4444-2222-77777777-7777-2222-44444444----Palm mute with up and downstrokes--|
A-4444-2222-55555555-5555-2222-44444444-----------55555555-5555---------------|
E-2222-0000---------------0000-22222222-2222-0000---------------0000-22222222-|

When a man...
e-------------------------------------------------|
B-------------------------------------------------|
G-7777---------------7777---------------7~--------|
D-7777-2222-44444444-7777-2222-44444444-7~-7~-2~--|
A-5555-2222-44444444-5555-2222-44444444-5~-7~-2~--|
E------0000-22222222------0000-22222222----5~-0~--| Pickslide into chorus

Chorus 2 (Both Guitars)
Rain fell...
e---------------------------------------|
B---------------------------------------|
G-----------77777777-7777---------------|
D-4444-2222-77777777-7777-2222-44444444-|
A-4444-2222-55555555-5555-2222-44444444-|   4x
E-2222-0000---------------0000-22222222-|

Bridge

Oh lord have...

Brian Baker
e-0~-2~-2----0~---------------------------|
B-0~-2~---2--0~---------------------------|
G-1~-2~------1~-77777777-6666666666666666-|
D-2~-4~------2~-77777777-6666666666666666-|
A-2~-4~------2~-55555555-4444444444444444-|
E-0~-2~------0~---------------------------|

Greg Hetson
e-----------------------------------------------------------------------------|
B-----------------------------------------------------------------------------|
G----------------------------------------------------77777777-66666666--------|
D-2222222222222222-4444444444444444-2222222222222222-77777777-66666666-14h16~-|
A-2222222222222222-4444444444444444-2222222222222222-55555555-44444444--------|
E-0000000000000000-2222222222222222-0000000000000000--------------------------|


Guitar Solo

Greg Hetson
e--------------------------------------------------------------------------|
B----------------------14h17p14-14h17p14-14h17p14-14h17p14-14h17p14-17b19~-|
G-------14-14-16-16b18-----------------------------------------------------|
D-14-16--------------------------------------------------------------------|
A--------------------------------------------------------------------------|
E--------------------------------------------------------------------------|

e---------------------------------------14h17p14-14h17p14-14h17p14----------|
B-14h17b19r17-14-17-17---------------------------------------------14h17p14-|
G----------------------16b18r16-14----14------------------------------------|
D----------------------------------16---------------------------------------|
A---------------------------------------------------------------------------|
E---------------------------------------------------------------------------|

E--------------------------|
B-14h17p14-----------------|
G----------14h16b18r16-----|
D----------------------14~-|
A--------------------------|
E--------------------------|

Brian Baker
e---------------------------------------|
B---------------------------------------|
G-----------77777777-7777---------------|
D-4444-2222-77777777-7777-2222-44444444-|
A-4444-2222-55555555-5555-2222-44444444-|   2x
E-2222-0000---------------0000-22222222-|

Chorus 3 (Both Guitars)
Rain fell...
e---------------------------------------|
B---------------------------------------|
G-----------77777777-7777---------------|
D-4444-2222-77777777-7777-2222-44444444-|
A-4444-2222-55555555-5555-2222-44444444-|   2x
E-2222-0000---------------0000-22222222-|
Then
Brian Baker
E-----------------------------------------------------------------------------------|
B-17b19-17b19-17b19-14h17b19-------17-----------------------------------------------|
G----------------------------16b18----16b18r16-14---14--16b18-16b18r16---14~-7------|
D-------------------------------------------------16------------------16-----7-2-4~-|
A----------------------------------------------------------------------------5-2-4~-|
E------------------------------------------------------------------------------0-2~-|

Greg Hetson
e-----------------------------------------------------------------|
B-----------------------------------------------------------------|
G-----------77777777-7777-------------------------77777777-7------|
D-4444-2222-77777777-7777-2222-44444444-4444-2222-77777777-7-2-4~-|
A-4444-2222-55555555-5555-2222-44444444-4444-2222-55555555-5-2-4~-|
E-2222-0000---------------0000-22222222-2222-0000------------0-2~-|
Tap to rate this tab
 
# A B C D E F G H I J K L M N O P Q R S T U V W X Y Z