Song name
# A B C D E F G H I J K L M N O P Q R S T U V W X Y Z

Bad Religion - Where The Fun Is tab

Artist: BAD RELIGION
Song: Where The Fun Is
Album: The Dissent Of Man
Tuning: Standard (EADGBE)


INTRO/CHOURS:

(Rhythm Guitar)

   Bm      D         A       G
e|-----------------|-----------------|
B|-----------------|-----------------|
G|-4-4-4-4-7-7-7-7-|-----------------|
D|-4-4-4-4-7-7-7-7-|-7-7-7-7-5-5-5-5-|
A|-2-2-2-2-5-5-5-5-|-7-7-7-7-5-5-5-5-|
E|-----------------|-5-5-5-5-3-3-3-3-|


(Lead Guitar)

e|-----------------|-----------------|
B|-----------------|-----------------|
G|-----------------|-----------------|
D|---------------5-|-7-7-7-6-5-5-5-5-|
A|-2-2-2-4-5-5-5---|-----------------|
E|-----------------|-----------------|

Play three times than:

   Bm
e|-----------------|-----------------|
B|-----------------|-----------------|
G|-4---------------|-----------------|
D|-4---------------|-----------------|
A|-2---------------|-----------------|
E|-----------------|-----------------|


VERSE:

(Riff 1)

   Bm      D         Em      D   C#m
e|-----------------|-----------------|
B|-----------------|-----------------|
G|-4-4-----7-7-----|-9-9-----7-7-6-6-|
D|-4-4-----7-7-----|-9-9-----7-7-6-6-|
A|-2-2-----5-5-----|-7-7-----5-5-4-4-|
E|-----------------|-----------------|


(Riff 2)

   Bm      D         Em      G
e|-----------------|-----------------|
B|-----------------|-----------------|
G|-4-4-4-4-7-7-7-7-|-----------------|
D|-4-4-4-4-7-7-7-7-|-2-2-2-2-5-5-5-5-|
A|-2-2-2-2-5-5-5-5-|-2-2-2-2-5-5-5-5-|
E|-----------------|-0-0-0-0-3-3-3-3-|

Play Riff 1 four times than Riff 2 three times than:

   F#m
e|-----------------|-----------------|
B|-----------------|-----------------|
G|-----------------|-----------------|
D|-4-4-4-4-4-4-4-4-|-4---------------|
A|-4-4-4-4-4-4-4-4-|-4---------------|
E|-2-2-2-2-2-2-2-2-|-2---------------|


Play the chorus-riff under the solo.

These riffs are using in the whole song. Just listen to it. I have no idea for the solo, sorry.
Tap to rate this tab
 
# A B C D E F G H I J K L M N O P Q R S T U V W X Y Z