Song name
# A B C D E F G H I J K L M N O P Q R S T U V W X Y Z

Bad Religion - Come Join Us tab

KK this is my first tab, so please go easy on me and give me feedback, because I'm not 
if i got it right, so here it goes.
The numbers in the brackets are just frets that I used, although it doesnt make a 
difference, it works, and can work if clean or acoustic.
Add my msn, so that you can help me improve tabbing and guitar in general, because we 
need to get better, especially me lol.
Treehubanator@hotmail.com
And be honest bout my tab, and rating, because its my first, and I know it's gonna suck 
time.

Sorry if its hard to read, because I don't really know how to do timing yet, so you'll 
to listen to the song for the proper amount of times for each chord, and the timing, 
Once I get a little better I will try and improve on that.

Introduction

|-------------------------------------------------------|
|-------------------------------------------------------|
|--------------5-5-5-5-5-5---------------7-7-7-7--------|
|-2-2-2-2-2-2--5-5-5-5-5-5--5-5-5-5-5-5--7-7-7-7--2-2-2-|
|-2-2-2-2-2-2--3-3-3-3-3-3--5-5-5-5-5-5--5-5-5-5--2-2-2-|
|-0-0-0-0-0-0---------------3-3-3-3-3-3-----------0-0-0-|

Verse

|-----------------------------------------------------------------|
|-----------------------------------------------------------------|
|--------------5-5-5-5-5-5---------------7-7-7-7-7-7--9-9-9-9-9-9-|
|-2-2-2-2-2-2--5-5-5-5-5-5--5-5-5-5-5-5--7-7-7-7-7-7--9-9-9-9-9-9-|
|-2-2-2-2-2-2--3-3-3-3-3-3--5-5-5-5-5-5--5-5-5-5-5-5--7-7-7-7-7-7-|
|-0-0-0-0-0-0---------------3-3-3-3-3-3---------------------------|


Pre-Chorus

|-------------------------------------------------------------------|
|-------------------------------------------------------------------|
|----------7-7-7-7--9---9---9---9-----------7-7-7-7--4-4-4-4-4-4-4-4|
|-5-5-5-5--7-7-7-7--9---9---9---9--5-5-5-5--7-7-7-7--4-4-4-4-4-4-4-4|
|-5-5-5-5--5-5-5-5--7---7---7---7--5-5-5-5--5-5-5-5--2-2-2-2-2-2-2-2|
|-3-3-3-3--------------------------3-3-3-3--------------------------|

Chorus

|---------------------------------------------------------------------------|
|---------------------------------------------------------------------------|
|----------5-5-5-5----------------7-7-7-7-----------5-5-5-5--7-7-7-7-7-7-7-7|
|-2-2-2-2--5-5-5-5--2-2-2-2--5-5--7-7-7-7--2-2-2-2--5-5-5-5--7-7-7-7-7-7-7-7|
|-2-2-2-2--3-3-3-3--2-2-2-2--5-5--5-5-5-5--2-2-2-2--3-3-3-3--5-5-5-5-5-5-5-5|
|-0-0-0-0-----------0-0-0-0--3-3-----------0-0-0-0--------------------------|

AFTER Chorus
REPEAT Verse X2
REPEAT Pre-Chorus X1
REPEAT CHORUS


|----------------|----------------|----------------|-----------------|
|----------------|----------------|----------------|-----------------|
|-9--9-9-----12--|-9--9-9-----12--|-9--9-9-----12--|-9--9-9-----12\--|
|-x--x-x------x--|-x--x-x------x--|-x--x-x------x--|-x--x-x------x---|
|-7--7-7-----10--|-7--7-7-----10--|-7--7-7-----10--|-7--7-7-----10\--|
|----------------|----------------|----------------|-----------------|

|-/17---15---12h15p12-----|----------------------------|
|---------------------15--|-15b17===15-15-(15)r15r-15--|
|-------------------------|----------------------------|
|-------------------------|----------------------------|
|-------------------------|----------------------------|
|-------------------------|----------------------------|

|--------12-12--12-----|------------------------|
|-15b17------------15--|-15b17-----------xb16\--|
|----------------------|------------------------|
|----------------------|------------------------|
|----------------------|------------------------|
|----------------------|------------------------|

|------------------------|----------------------|
|------------------------|----------------------|
|-14b16-----------14pb16-|-14b16r=14p12-----12--|
|------------------------|---------------14-----|
|------------------------|----------------------|
|------------------------|----------------------|

|-------------------------------|--------------------------|
|-------------------------------|-----------15--(15)-15-15-|
|-14pb16=======(14)r-14b16r==14-|-14b16r=14----------------|
|-------------------------------|--------------------------|
|-------------------------------|--------------------------|
|-------------------------------|--------------------------|

|----------------------------------|----------------------|
|-15-(15)b17==15-15-15r-(15)-15-15-|-15p13-13-13--13-13-x-|
|----------------------------------|----------------------|
|----------------------------------|----------------------|
|----------------------------------|----------------------|
|----------------------------------|----------------------|

|-----------------------|---------------|
|-12h13p12--------------|---------------|
|----------12-14p12-----|---------------|
|-------------------14--|-12------------|
|-----------------------|---------------|
|-----------------------|---------------|

REPEAT VERSE X2

I can't figure out the ending, sorry, if you know it, please send a comment with it.
THANKS

Enjoy, write me feedback, I'm open to all suggestions, comments, criticisms, and compliments

Thanks
Joe
Tap to rate this tab
# A B C D E F G H I J K L M N O P Q R S T U V W X Y Z