Song name
# A B C D E F G H I J K L M N O P Q R S T U V W X Y Z

Bad Religion - I Want Something More tab

First part:x2
e|---------------------------------------------------------|
B|---------------------------------------------------------|
G|--------------10-10-10-10-10------------10-10-10--12-12--|
D|---7-7-7-7-7--10-10-10-10-10--7-7-7-7-7-10-10-10--12-12--|
A|---7-7-7-7-7---8--8--8--8--8--7-7-7-7-7--8--8--8--10-10--|
E|---5-5-5-5-5------------------5-5-5-5-5------------------|
Second part:x1
e|-------------------------------------------------------------------|
B|-------------------------------------------------------------------|
G|------------------------------------------5-5-5-5-7-7-7-7-9-9-9-9--|
D|--7-7-7-7-5-5-5-5-3-3-3-3-2-2-2-2-3-3-3-3-5-5-5-5-7-7-7-7-9-9-9-9--|
A|--7-7-7-7-5-5-5-5-3-3-3-3-2-2-2-2-3-3-3-3-3-3-3-3-5-5-5-5-7-7-7-7--|
E|--5-5-5-5-3-3-3-3-1-1-1-1-0-0-0-0-1-1-1-1--------------------------|

e|------------------|
B|------------------|
G|------------------|
D|-3-3-3-3-5-5-5-5--|
A|-3-3-3-3-5-5-5-5--|
E|-1-1-1-1-3-3-3-3--|
Play the whole thing twice
Outro:x1
e|-----------------------------------------------------------|
B|-----------------------------------------------------------|
G|--------------10-10-10-10-10------------10-10-10--12-12----|
D|---7-7-7-7-7--10-10-10-10-10--7-7-7-7-7-10-10-10--12-12-7--|
A|---7-7-7-7-7---8--8--8--8--8--7-7-7-7-7--8--8--8--10-10-7--|
E|---5-5-5-5-5------------------5-5-5-5-5-----------------5--|
Tap to rate this tab
# A B C D E F G H I J K L M N O P Q R S T U V W X Y Z