Song name
# A B C D E F G H I J K L M N O P Q R S T U V W X Y Z

Bad Religion - Bored And Extremely Dangerous tab

Verse:
e|-------------------------------------------------------------------|
B|-------------------------------------------------------------------|
D|------------8-8-8-8-8-------------------------8-8-8-8-8------------|
G|--5-5-5-5-5-8-8-8-8-8-8-8-8-8-8-7-7-5-5-5-5-5-8-8-8-8-8-8-8-8-8-8--|
A|--5-5-5-5-5-6-6-6-6-6-8-8-8-8-8-7-7-5-5-5-5-5-6-6-6-6-6-8-8-8-8-8--|
E|--3-3-3-3-3-----------6-6-6-6-6-5-5-3-3-3-3-3-----------6-6-6-6-6--|

e|---------------------------------|
B|---------------------------------|
D|--5-5-5-5-5-7-7-7-7-7-8-8-8-8-8--|
G|--5-5-5-5-5-7-7-7-7-7-8-8-8-8-8--|x2
A|--3-3-3-3-3-5-5-5-5-5-6-6-6-6-6--|
E|---------------------------------|

e|----------------------------------------|
B|----------------------------------------|
D|--------8-8-8-------10-10-10-10-10------|
G|--5-5-5-8-8-8-8-8-8-10-10-10-10-10------|
A|--5-5-5-6-6-6-8-8-8--8--8--8--8--8------|
E|--3-3-3-------6-6-6---------------------|
Chorus:x2
e|--------------------------------------|
B|--------------------------------------|
D|--8-8-8-8-8-----------10-10-10-10-10--|
G|--8-8-8-8-8-8-8-8-8-8-10-10-10-10-10--|x2
A|--6-6-6-6-6-8-8-8-8-8--8--8--8--8--8--|
E|------------6-6-6-6-6-----------------|

e|------------------------------------------------|
B|------------------------------------------------|
D|------------7-7-7-7-7-8-8-8-8-8-10-10-10-10-10--|
G|--5-5-5-5-5-7-7-7-7-7-8-8-8-8-8-10-10-10-10-10--|
A|--5-5-5-5-5-5-5-5-5-5-6-6-6-6-6--8--8--8--8--8--|
E|--3-3-3-3-3-------------------------------------|
End of chorus:x4 palm mute first 2 times
e|-------------------------------------------|---|
B|-------------------------------------------|---|
D|------------8-8-8-8-8----------------------|---|
G|--5-5-5-5-5-8-8-8-8-8-8-8-8-8-8-3-3-3-3-3--|-5-|
A|--5-5-5-5-5-6-6-6-6-6-8-8-8-8-8-3-3-3-3-3--|-5-|
E|--3-3-3-3-3-----------6-6-6-6-6-1-1-1-1-1--|-3-|
Tap to rate this tab
 
# A B C D E F G H I J K L M N O P Q R S T U V W X Y Z