Song name
# A B C D E F G H I J K L M N O P Q R S T U V W X Y Z

Bad Religion - Live Again The Fall Of Man tab

Intro

4x

e|-----------------------------------------------|
B|------3-------3-------3-------3----------------|
G|----2---2---2---3---2---2---2---2--------------|
D|--0--------------------------------------------|
A|----------3-------2-------0--------------------|
E|-----------------------------------------------|


Verse:
The road is narrow, the horizon wide
And they say what's waiting on the other side
Is so rewarding and the ultimate prize

3x
e|------------------------|
B|------------------------|
G|------------5-5---------|
D|---5-5--3-3-5-5-5-5-----|
A|---5-5--3-3-3-3-5-5-----|
E|---3-3--1-1-----3-3-----|

But what good is something if you can't have it until you die?


e|--0-----0------------------------------------------------------|
B|--1-----1-------------3-------3-------3-------3----------------|
G|--2-----0-----------2---2---2---3---2---2---2---2--------------|
D|--2-----2---------0--------------------------------------------|
A|--0-----3-----------------3-------2-------0--------------------|
E|---------------------------------------------------------------|

Brigde:

Desperate, tenacious, clinging like a grain of sand,
Watching its foundation wash away

e|--0---2----------------------0--2---------------------------------|
B|--1---3----3------3----------1--3---------------------------------|
G|--0---2------0------0--------0--2---------------------------------|
D|--2---0----------------2-2---2--0-2-2-2-2-------------------------|
A|--3--------------------2-2---3----2-2-2-2-------------------------|
E|---------3------2------0-0--------0-0-0-0-------------------------|


Drunk with the assertions they know they can't defend

e|--0---2---------------------|
B|--1---3----3------3---------|
G|--0---2------0------0-------|
D|--2---0----------------2-2--|
A|--3--------------------2-2--|
E|---------3------2------0-0--|

Confident that they might...

e|--0---2--|
B|--1---3--|
G|--0---2--|
D|--2---0--|
A|--3------|
E|---------|

Live again..

e|-------|
B|-------|
G|-------|
D|---5-5-|
A|---5-5-|
E|---3-3-|

Chorus:
Live again! Live again!
Would you give it all up to live again?
Live again! Live again!
Would you give it all up to live again?

e|------------------------------------------------------------------|
B|------------------------------------------------------------------|
G|----------7-7-7---5--7--9---5-5-5--7-7-7--5-7---------------------|
D|---2-2-2--7-7-7---5--7--9---5-5-5--7-7-7--5-7-5-5-5---------------|
A|---2-2-2--5-5-5---3--5--7---3-3-3--5-5-5--3-5-5-5-5---------------|
E|---0-0-0--------------------------------------3-3-3---------------|




e|-----------|
B|-----------|
G|--7-7-7----|
D|--7-7-7----|
A|--5-5-5----|
E|-----------|


Verse:
Temptation, revelation, you decide,
Torture shows its colors often in disguise.
Progress and purpose help us realize

3x
e|------------------------|
B|------------------------|
G|------------5-5---------|
D|---5-5--3-3-5-5-5-5-----|
A|---5-5--3-3-3-3-5-5-----|
E|---3-3--1-1-----3-3-----|

We pass along a brighter faith even though it must be blind.


e|--0-----0------------------------------------------------------|
B|--1-----1-------------3-------3-------3-------3----------------|
G|--2-----0-----------2---2---2---3---2---2---2---2--------------|
D|--2-----2---------0--------------------------------------------|
A|--0-----3-----------------3-------2-------0--------------------|
E|---------------------------------------------------------------|

Brigde:

Desperate, tenacious, clinging like a grain of sand,
Watching its foundation wash away

e|--0---2----------------------0--2---------------------------------|
B|--1---3----3------3----------1--3---------------------------------|
G|--0---2------0------0--------0--2---------------------------------|
D|--2---0----------------2-2---2--0-2-2-2-2-------------------------|
A|--3--------------------2-2---3----2-2-2-2-------------------------|
E|---------3------2------0-0--------0-0-0-0-------------------------|


Drunk with the assertions they know they can't defend

e|--0---2---------------------|
B|--1---3----3------3---------|
G|--0---2------0------0-------|
D|--2---0----------------2-2--|
A|--3--------------------2-2--|
E|---------3------2------0-0--|

Confident that they might...

e|--0---2--|
B|--1---3--|
G|--0---2--|
D|--2---0--|
A|--3------|
E|---------|

Live again..

e|-------|
B|-------|
G|-------|
D|---5-5-|
A|---5-5-|
E|---3-3-|

Chorus:

Live again! Live again!
Would you give it all up to live again?
Live again! Live again!
Would you give it all up to live again?

e|------------------------------------------------------------------|
B|------------------------------------------------------------------|
G|----------7-7-7---5--7--9---5-5-5--7-7-7--5-7---------------------|
D|---2-2-2--7-7-7---5--7--9---5-5-5--7-7-7--5-7-5-5-5---------------|
A|---2-2-2--5-5-5---3--5--7---3-3-3--5-5-5--3-5-5-5-5---------------|
E|---0-0-0--------------------------------------3-3-3---------------|

e|-----------------------------------------------|
B|------3-------3-------3-------3----------------|
G|----2---2---2---3---2---2---2---2--------------|
D|--0--------------------------------------------|
A|----------3-------2-------0--------------------|
E|-----------------------------------------------|

Solo:


e|--------------------------------------|
B|--------------------------------------|
G|--------------------------------------|
D|------5-5-7-5-7b-5-7p5-7b-------------|
A|--5h7---------------------------------|
E|--------------------------------------|

Something like this...
e|--------------------------------------|
B|--5-3-5p3-----------------------------|
G|-----------4-2-4p2--2-0-2p0---0-0-----|
D|----------------------------2---------|
A|--------------------------------------|
E|--------------------------------------|



e|--2-----3------5-----7-----8--8---7---|
B|--------------------------------------|
G|-2--2/4---4/5----5/7---7/9------7-----|
D|--------------------------------------|
A|--------------------------------------|
E|--------------------------------------|

e|--------------------------------------|
B|-------------------------15b----------|
G|--4h5-4---4-5-7-9-11b-----------------|
D|--------5-----------------------------|
A|--------------------------------------|
E|--------------------------------------|

Tap to rate this tab
# A B C D E F G H I J K L M N O P Q R S T U V W X Y Z