Song name
# A B C D E F G H I J K L M N O P Q R S T U V W X Y Z

Bad Religion - Latch Key Kids tab

This is the whole song and this is a kick ass song by a kick ass band!!

intro
e------------------------------------|
b------------------------------------|
g---5-5-5-5---4---8-7----------------|
d---5-5-5-5---5---8-8-----1010--10---|
a---3-3-3-3---5---6-8-----8-8---8----|
e-------------3-----6----------------|

Verse
e----------------------------------|
b----------------------------------|
g---8888---7777--------------------|
d---8888---8888---99999999---------|
a---6666---8888---00000000#--------|
e----------6666---88888888---------|

Verse II
e----------------------------------|
b----------------------------------|
g---8888---7777--------------------|
d---8888---8888---99999999---------|
a---6666---8888---00000000#--------|
e----------6666---88888888---------|

Solo
Bend up=/
Bend down=\

e---8---8------------|
b--11/-11/-----------|
g--------------------|
d--------------------|
a--------------------|
e-------------   <---|Play twice

e---8---8---8---8---8---8---8---8--------------------------------------|
b--11/-11/-11/-11/-11/-11/-11/-11/----11-8-----------------------------|
g------------------------------------------10-8---10/\-8---------------|
d--------------------------------------------------------10-------8-10-|
a-----------------------------------------------------------10-10------|
e----------------------------------------------------------------------|

e------------------------88------------------8--8------13----13-----20-|
b------------------------88-----------------11/-11-----16/---16/-16----|
g---10/\8----8-8-8-8-10/-----10-8-10\-8--------------------------------|
d---------10----------------------------10-----------------------------|
a----------------------------------------------------------------------|
e----------------------------------------------------------------------|
Tap to rate this tab
 
# A B C D E F G H I J K L M N O P Q R S T U V W X Y Z