Song name
# A B C D E F G H I J K L M N O P Q R S T U V W X Y Z

Bad Religion - Let Them Eat War tab

Let Them Eat War by Bad Religion

Tabbed by:286Musician
E-mail:Koolkid247@live.com

Tuning:Standard

----------------------------
Order of song:
Intro 2x
Verse
Chorus
Chorus ending riff
Intro
Verse
Chorus
Chorus ending riff
Intro
Solo
[Bridge lead/Bridge rhythm]
Intro
Chorus
Outro
----------------------------

Intro
I play the intro with all up/down strumming and I believe that this is accurate as far 
as the amount of times each note is strummed goes. But strum each one however many times 
you like or whatever sounds best to you.
e|---------------------------------------------------------------------------|
B|---------------------------------------------------------------------------|
G|-0000-000-000-0--0-00-0--0-0--0--0--0--0--0--00-0--0-0-0-0-00000000--------|
D|-5555/777/999-10-9-99-10/1212-14-12-10/12-10-99/10-9-7/9-7-55555555--------|
A|---------------------------------------------------------------------------|
E|---------------------------------------------------------------------------|

Verse
Use the up/down strumming pattern for these power chords. Each power chord is strummed 
16x and palm muted.
e|---------------------------------------------------------------------------|
B|---------------------------------------------------------------------------|
G|---------------------------------------------------------------------------|
D|-5-3-7-5-------------------------------------------------------------------|
A|-5-3-7-5-------------------------------------------------------------------|
E|-3-1-5-3-------------------------------------------------------------------|

Chorus
Use the up/down strumming pattern for these power chords. The first 2 power chords are 
strummed 8x, the last power chord is strummed 16x
e|---------------------------------------------------------------------------|
B|---------------------------------------------------------------------------|
G|-8-5-----------------------------------------------------------------------|
D|-8-5-5---------------------------------------------------------------------|
A|-6-3-5---------------------------------------------------------------------|
E|-----3---------------------------------------------------------------------|

Chorus ending riff
Use the up/down strumming pattern for these power chords. The first 2 power chords are 
strummed 8x, the last power chord is strummed 16x
e|---------------------------------------------------------------------------|
B|---------------------------------------------------------------------------|
G|-8-10-12-------------------------------------------------------------------|
D|-8-10-12-------------------------------------------------------------------|
A|-6-8--10-------------------------------------------------------------------|
E|---------------------------------------------------------------------------|

Solo

e------------------------------------------------------------------3~~~~-----|
B----------------------------------------------------------------3-----------|
G----------------------------------------5--5h7p5-4-4h5p4--0h2-4-------------|
D--3/5-3/5-3/5-3/5-3/5--3/5-3/5-3/5-3/5--------------------------------------|
A----------------------------------------------------------------------------|
E----------------------------------------------------------------------------|

Bridge Lead

e----------*12---------------------------------------------------------------|
B--*12-----------------------------------------------------------------------|
G------*12-----*7------------------------------------------------------------|
D----------------------------------------------------------------------------|
A----------------------------------------------------------------------------|
E----------------------------------------------------------------------------|

Bridge Rhythm
Each power chord is strummed once and they do this riff twice in the bridge, once during 
the "bridge lead" and once after. This is totally optional for lead guitar players, I 
prefer to play it.
e|---------------------------------------------------------------------------|
B|---------------------------------------------------------------------------|
G|---------------------------------------------------------------------------|
D|-5-3-7-5-------------------------------------------------------------------|
A|-5-3-7-5-------------------------------------------------------------------|
E|-3-1-5-3-------------------------------------------------------------------|

Outro

e|---------------------------------------------------------------------------|
B|---------------------------------------------------------------------------|
G|---------------------------------------------------------------------------|
D|-555/777/99/10-9~~-0-------------------------------------------------------|
A|-------------------2-------------------------------------------------------|
E|-------------------3-------------------------------------------------------|

Please feel free to comment or message me about this tab. Corrections are welcome, if 
you feel that I made any mistakes at all let me know. Enjoy!

********************
| /   slide up
| h   hammer-on
| p   pull-off
| ~   Let ring
********************
Tap to rate this tab
# A B C D E F G H I J K L M N O P Q R S T U V W X Y Z