Song name
# A B C D E F G H I J K L M N O P Q R S T U V W X Y Z

Bad Religion - Do What You Want tab

-------------------------------------------------------------------------------
                             DO WHAT YOU WANT - Bad Religion
-------------------------------------------------------------------------------
Tabbed by: min0r_threat
E-mail: ngrantj@yahoo.com

Tuning: Standard

INTRO
e|----------------------------------------|
B|----------------------------------------|
G|----------------------------------------|
D|--5-555-5--5-5-5-5--4-444-4--4-4-4-4----|
A|--3-333-3--3-3-3-3--2-222-2--2-2-2-2----|
E|----------------------------------------|

BRIDGE
e|--------------------------|
B|--------------------------|
G|--------------------------|
D|--9-9--5-5-------7-7------|
A|--7-7--3-3--5-5--5-5------|
E|------------3-3-----------|

VERSE
e|--------------------------------------|
B|--------------------------------------|
G|--------------------------------------|
D|--9-99-9--5-55-5----------7-77-7------|
A|--7-77-7--3-33-3--5-55-5--5-55-5------|
E|------------------3-33-3--------------|

CHORUS
e|------------------------------------------------------------------------|
B|------------------------------------------------------------------------|
G|------------------------------------------------------------------------|
D|--55-77-999--55-77-999--55-77-999--5-55-5--5-5-5-5--4-44-4--4-4-4-4-----|
A|--33-55-777--33-55-777--33-55-777--3-33-3--3-3-3-3--2-22-2--2-2-2-2-----|
E|------------------------------------------------------------------------|

SONG STRUCTURE:

INTRO
BRIDGE x4
VERSE x4
CHORUS
BRIDGE x4
VERSE x4 (after last verse ends play three 7/9 chords 4x before chorus)
CHORUS
BRIDGE x4

And that's it!
Tap to rate this tab
# A B C D E F G H I J K L M N O P Q R S T U V W X Y Z