Song name
# A B C D E F G H I J K L M N O P Q R S T U V W X Y Z

Bad Religion - Henchman tab

Bad Religion
Henchman (No Control track 08)
Standard Tuning

If you can strum fast and play power chords, you can play this song.
You don't even need to palm mute. PUNK ROCK!

Riff 1                                                              _
e|----------------------------------------------------------------|  |
B|----------------------------------------------------------------|  |
G|101010101010101010101010101010108-8-8-8-10101010----------------|  |
D|101010101010101010101010101010108-8-8-8-101010106-6-6-6-8-8-8-8-|  |
A|8-8-8-8-8-8-8-8-8-8-8-8-8-8-8-8-6-6-6-6-8-8-8-8-6-6-6-6-8-8-8-8-|  |
E|------------------------------------------------4-4-4-4-6-6-6-6-|  |
  Stranded...                                                        | 
                                                                     |- x3
e|--------------------------------|                                  |
B|--------------------------------|                                  |
G|--------------------------------|                                  |
D|10101010101010101010101010101010|                                  |
A|10101010101010101010101010101010|                                  |
E|8-8-8-8-8-8-8-8-8-8-8-8-8-8-8-8-|                                 _|


Riff 2
e|--------------------------------|
B|--------------------------------|
G|6-6-6-6---------8-8-8-8-8-8-8-8-|
D|6-6-6-6-6-6-6-6-8-8-8-8-8-8-8-8-| x3
A|4-4-4-4-6-6-6-6-6-6-6-6-6-6-6-6-|
E|--------4-4-4-4-----------------|
..what good advice...

e|----------------|
B|----------------|
G|6-6-6-6---------|
D|6-6-6-6-6-6-6-6-| x1, followed by riff 1 once
A|4-4-4-4-6-6-6-6-|
E|--------4-4-4-4-|
..into this reprobate...

Riff 3 (Double-time from this point forward)
Riff 3 A
e|--------------------------------|
B|--------------------------------|
G|10--101010108---10--101010108---|
D|10--101010108---10--101010108---|
A|8---8-8-8-8-6---8---8-8-8-8-6---|
E|--------------------------------|
  Don't be a henchman...

Riff 3 B
e|--------------------------------|
B|--------------------------------|
G|----------------8-8-8-8-8-8-8-8-|
D|6-6-6-6-6-6-6-6-8-8-8-8-8-8-8-8-|
A|6-6-6-6-6-6-6-6-6-6-6-6-6-6-6-6-|
E|4-4-4-4-4-4-4-4-----------------|

Play A three times, B once, A once, B once, then A twice

Riff 4

e|----------------------------------------------------------------|
B|----------------------------------------------------------------|
G|----------------8-8-8-8-8-8-8-8-----------------1010101010101010|
D|6-6-6-6-6-6-6-6-8-8-8-8-8-8-8-8-8-8-8-8-8-8-8-8-1010101010101010| x1
A|6-6-6-6-6-6-6-6-6-6-6-6-6-6-6-6-8-8-8-8-8-8-8-8-8-8-8-8-8-8-8-8-|
E|4-4-4-4-4-4-4-4-----------------6-6-6-6-6-6-6-6-----------------|
  And when everyone else in the world follows your lead

e|----------------------------------------------------------------|
B|----------------------------------------------------------------|
G|6-6-6-6-6-6-6-6-----------------8-8-8-8-8-8-8-8-----------------|
D|6-6-6-6-6-6-6-6-6-6-6-6-6-6-6-6-8-8-8-8-8-8-8-8-8-8-8-8-8-8-8-8-| x1
A|4-4-4-4-4-4-4-4-6-6-6-6-6-6-6-6-6-6-6-6-6-6-6-6-8-8-8-8-8-8-8-8-|
E|----------------4-4-4-4-4-4-4-4-----------------6-6-6-6-6-6-6-6-|
  Although a cold day in hell that will surely be

e|----------------------------------------------------------------|
B|----------------------------------------------------------------|
G|----------------6-6-6-6-6-6-6-6-----------------8-8-8-8-8-8-8-8-|
D|4-4-4-4-4-4-4-4-6-6-6-6-6-6-6-6-6-6-6-6-6-6-6-6-8-8-8-8-8-8-8-8-| x1
A|4-4-4-4-4-4-4-4-4-4-4-4-4-4-4-4-6-6-6-6-6-6-6-6-6-6-6-6-6-6-6-6-|
E|2-2-2-2-2-2-2-2-----------------4-4-4-4-4-4-4-4-----------------|
  That's when the entire world shall live in harmony

Outro
                                 
e|----------------------------------------------------------------|
B|----------------------------------------------------------------|
G|10--101010108---10--101010108-------------------8-8-8-8-8-8-8-8-|
D|10--101010108---10--101010108---6---6-6-6-6-6-6-8-8-8-8-8-8-8-8-| x2
A|8---8-8-8-8-6---8---8-8-8-8-6---6---6-6-6-6-6-6-6-6-6-6-6-6-6-6-|
E|--------------------------------4---4-4-4-4-4-4-----------------|

  (11's and 13's, just to be clear)
e|--------------------------------------------------|
B|--------------------------------------------------|
G|13--13--8-----8-101010101010101013--13--8-----8-10|
D|13--13--8-----8-101010101010101013--13--8-----8-10|
A|11--11--6-----6-8-8-8-8-8-8-8-8-11--11--6-----6-8-|
E|--------------------------------------------------|

And that's it, the entire glorious minute.
I hope you found this helpful, so you don't
have to listen to the song over and over
and over again to try and figure it out for
yourself like I had to (Not that that's a bad thing,
I listen to this song over and over again anyway).

This is my first contribution to Ultimate-Guitar,
so if you have any suggestions or requests, let me know.
Thank you.
Tap to rate this tab
# A B C D E F G H I J K L M N O P Q R S T U V W X Y Z