Song name
# A B C D E F G H I J K L M N O P Q R S T U V W X Y Z

Bad Religion - Fuck You tab

e |--------------------------------------------------------|
B |--------------------------------------------------------|
G |---9-9--9---9-9--9---9-9--9--7-7--9-9-------------------|
D |---9-9--9---9-9--9---9-9--9--7-7--9-9-------------------| x3 
A |---7-7--7---7-7--7---7-7--7--5-5--7-7-------------------|
E |--------------------------------------------------------|

Riff 1
e |--------------------------------------------------------|
B |---------------------------------------10/9-------------|
G |---5-5-5-5-5-5-------------9-9-9-9-9-9-9--9-------------|
D |---5-5-5-5-5-5-7-7-7-7-7-7-9-9-9-9-9-9-9--9-------------|  
A |---3-3-3-3-3-3-7-7-7-7-7-7-7-7-7-7-7-7-7--7-------------|
E |---------------5-5-5-5-5-5------------------------------|
Tap to rate this tab
# A B C D E F G H I J K L M N O P Q R S T U V W X Y Z