Song name
# A B C D E F G H I J K L M N O P Q R S T U V W X Y Z

Bad Religion - Dept Of False Hope tab

-----------------------------------------------------------------------------
                          Dept. of False Hope - Bad Religion
-----------------------------------------------------------------------------
Tabbed by: Gaggson
E-mail: gaggson1@gmail.com

Tuning: Standard


Verse 1X
e|---------------------------------------------------------------------------|
B|---------------------------------------------------------------------------|
G|----------------------------------7----------------------------------------|
D|--------9---7---4---5-----9---7---7---2---4--------------------------------|
A|--------9---7---4---5-----9---7---5---2---4--------------------------------|
E|-<<<<<--7---5---2---3-----7---5-------0---2--------------------------------|


Chorus  3X
e|---------------------------------------------------------------------------|
B|---------------------------------------------------------------------------|
G|-----------7-----------6-7-------------------------------------------------|
D|-------5---7---7---4---6-7-------------------------------------------------|
A|-------5---5---7---4---4-5-------------------------------------------------|
E|-------3-------5---2-------------------------------------------------------|

End of Chorus
e|---------------------------------------------------------------------------|
B|---------------------------------------------------------------------------|
G|--------------7------------------------------------------------------------|
D|------5---7---7------------------------------------------------------------|
A|------5---7---5------------------------------------------------------------|
E|------3---5----------------------------------------------------------------|

Verse 1X
e|---------------------------------------------------------------------------|
B|---------------------------------------------------------------------------|
G|----------------------------------7----------------------------------------|
D|--------9---7---4---5-----9---7---7---2---4--------------------------------|
A|--------9---7---4---5-----9---7---5---2---4--------------------------------|
E|-<<<<<--7---5---2---3-----7---5-------0---2--------------------------------|

Chorus  3X
e|---------------------------------------------------------------------------|
B|---------------------------------------------------------------------------|
G|-----------7-----------6-7-------------------------------------------------|
D|-------5---7---7---4---6-7-------------------------------------------------|
A|-------5---5---7---4---4-5-------------------------------------------------|
E|-------3-------5---2-------------------------------------------------------|

End of Chorus
e|---------------------------------------------------------------------------|
B|---------------------------------------------------------------------------|
G|--------------7------------------------------------------------------------|
D|------5---7---7------------------------------------------------------------|
A|------5---7---5------------------------------------------------------------|
E|------3---5----------------------------------------------------------------|

Solo background
e|---------------------------------------------------------------------------|
B|---------------------------------------------------------------------------|
G|----------------------------------7----------------------------------------|
D|--------9---7---4---5-----9---7---7---2---4--------------------------------|
A|--------9---7---4---5-----9---7---5---2---4--------------------------------|
E|-<<<<<--7---5---2---3-----7---5-------0---2--------------------------------|

Bridge
e|---------------------------------------------------------------------------|
B|---------------------------------------------------------------------------|
G|---------------------------------6-7---------------------------------------|
D|------5---7---9---7---5---4------6-7---------------------------------------|
A|------5---7---9---7---5---4------4-5---------------------------------------|
E|------3---5---7---5---3---2------------------------------------------------|

Chorus  3X
e|---------------------------------------------------------------------------|
B|---------------------------------------------------------------------------|
G|-----------7-----------6-7-------------------------------------------------|
D|-------5---7---7---4---6-7-------------------------------------------------|
A|-------5---5---7---4---4-5-------------------------------------------------|
E|-------3-------5---2-------------------------------------------------------|

Outro
e|--------------------------0------------------------------------------------|
B|--------------------------2------------------------------------------------|
G|--------------7---4-------2------------------------------------------------|
D|------5---7---7---4---5---2------------------------------------------------|
A|------5---7---5---2---5---0------------------------------------------------|
E|------3---5-----------3----------------------------------------------------|

************************************
| <   pickslide 
************************************
Tap to rate this tab
# A B C D E F G H I J K L M N O P Q R S T U V W X Y Z