Song name
# A B C D E F G H I J K L M N O P Q R S T U V W X Y Z

Bad Religion - Drunk Sincerity tab

/ - Slide 
b - Bend
r - Release
..- Palm Mute (Vary in Certain Places )


Intro x2
e|---------------|
B|---------------|
G|----7-----7-7--|
D|-5--7--7--7-7--|
A|-5--5--7--5-5--|
E|-3-----5-------|

Intro Solo 
E|---------------------------|
B|---------------------------|
G|-2/4-2-0-------------------|
D|----------4-2-0-2/4-2-0-0--|
A|---------------------------|
E|---------------------------|

Verse 
e|------------------------------------------------------------------------|
B|------------------------------------------------------------------------|
G|---------------------------7-7-7-7-----------------------------7-7-7-7--|
D|-7-7-7-7-7-7-7-7--5-5-5-5--7-7-7-7---7-7-7-7-7-7-7-7--5-5-5-5--7-7-7-7--|
A|-7-7-7-7-7-7-7-7--5-5-5-5--5-5-5-5---7-7-7-7-7-7-7-7--5-5-5-5--5-5-5-5--|
E|-5-5-5-5-5-5-5-5--3-3-3-3------------5-5-5-5-5-5-5-5--3-3-3-3-----------|

e|-----------------------------------|
B|-----------------------------------|
G|-4-4-4-4-4-4-4-4-------------------|
D|-4-4-4-4-4-4-4-4--5-5-5-5-5-5-5-5--|
A|-2-2-2-2-2-2-2-2--5-5-5-5-5-5-5-5--|
E|------------------3-3-3-3-3-3-3-3--|

e|-----------------------------------|
B|-----------------------------------|
G|-----------------------------------|
D|-7-7-7-7-7-7-7-7--7-7-7-7-7-7-7-7--|
A|-7-7-7-7-7-7-7-7--7-7-7-7-7-7-7-7--|
E|-5-5-5-5-5-5-5-5--5-5-5-5-5-5-5-5--|

Chorus
e|--------------------------------------------------------------------------|
B|--------------------------------------------------------------------------|
G|----------7-7-7-7-----------7-7-7-7------------7-7-7-7-----------7-7-7-7--|
D|-5-5-5-5--7-7-7-7--7-7-7-7--7-7-7-7---5-5-5-5--7-7-7-7--7-7-7-7--7-7-7-7--|
A|-5-5-5-5--5-5-5-5--7-7-7-7--5-5-5-5---5-5-5-5--5-5-5-5--7-7-7-7--5-5-5-5--|
E|-3-3-3-3-----------5-5-5-5------------3-3-3-3-----------5-5-5-5-----------|

e|-----------------------------------------|
B|-----------------------------------------|
G|----------7-7-7-7------------------------|
D|-5-5-5-5--7-7-7-7--7-7-7-7--9-9-9-9-9-9--|
A|-5-5-5-5--5-5-5-5--7-7-7-7--9-9-9-9-9-9--|
E|-3-3-3-3-----------5-5-5-5--7-7-7-7-7-7--|

e|---------------|
B|---------------|
G|----7-----7-7--|
D|-5--7--7--7-7--|
A|-5--5--7--5-5--|
E|-3-----5-------|

e|-------------------------------|
B|-------------------------------|
G|----------7-7-7-7-----------7--|
D|-5-5-5-5--7-7-7-7--7-7-7-7--7--|
A|-5-5-5-5--5-5-5-5--7-7-7-7--5--|
E|-3-3-3-3-----------5-5-5-5-----|

Verse 
e|------------------------------------------------------------------------|
B|------------------------------------------------------------------------|
G|---------------------------7-7-7-7-----------------------------7-7-7-7--|
D|-7-7-7-7-7-7-7-7--5-5-5-5--7-7-7-7---7-7-7-7-7-7-7-7--5-5-5-5--7-7-7-7--|
A|-7-7-7-7-7-7-7-7--5-5-5-5--5-5-5-5---7-7-7-7-7-7-7-7--5-5-5-5--5-5-5-5--|
E|-5-5-5-5-5-5-5-5--3-3-3-3------------5-5-5-5-5-5-5-5--3-3-3-3-----------|

e|-----------------------------------|
B|-----------------------------------|
G|-4-4-4-4-4-4-4-4-------------------|
D|-4-4-4-4-4-4-4-4--5-5-5-5-5-5-5-5--|
A|-2-2-2-2-2-2-2-2--5-5-5-5-5-5-5-5--|
E|------------------3-3-3-3-3-3-3-3--|

e|-----------------------------------|
B|-----------------------------------|
G|-----------------------------------|
D|-7-7-7-7-7-7-7-7--7-7-7-7-7-7-7-7--|
A|-7-7-7-7-7-7-7-7--7-7-7-7-7-7-7-7--|
E|-5-5-5-5-5-5-5-5--5-5-5-5-5-5-5-5--|

Chorus
e|--------------------------------------------------------------------------|
B|--------------------------------------------------------------------------|
G|----------7-7-7-7-----------7-7-7-7------------7-7-7-7-----------7-7-7-7--|
D|-5-5-5-5--7-7-7-7--7-7-7-7--7-7-7-7---5-5-5-5--7-7-7-7--7-7-7-7--7-7-7-7--|
A|-5-5-5-5--5-5-5-5--7-7-7-7--5-5-5-5---5-5-5-5--5-5-5-5--7-7-7-7--5-5-5-5--|
E|-3-3-3-3-----------5-5-5-5------------3-3-3-3-----------5-5-5-5-----------|

e|-----------------------------------------|
B|-----------------------------------------|
G|----------7-7-7-7------------------------|
D|-5-5-5-5--7-7-7-7--7-7-7-7--9-9-9-9-9-9--|
A|-5-5-5-5--5-5-5-5--7-7-7-7--9-9-9-9-9-9--|
E|-3-3-3-3-----------5-5-5-5--7-7-7-7-7-7--|

e|---------------|
B|---------------|
G|----7-----7-7--|
D|-5--7--7--7-7--|
A|-5--5--7--5-5--|
E|-3-----5-------|

e|-------------------------------|
B|-------------------------------|
G|----------7-7-7-7-----------7--|
D|-5-5-5-5--7-7-7-7--7-7-7-7--7--|
A|-5-5-5-5--5-5-5-5--7-7-7-7--5--|
E|-3-3-3-3-----------5-5-5-5-----|

Solo
E|----------------------------------------------------------|
B|----------------------------------------------------------|
G|-------------------9/11-9-7-7-7-6h7p6-7-7/9-7-6-----------|
D|-7-7-7-9-9/11-9-7--------------------------------7/9-7-7--|
A|----------------------------------------------------------|
E|----------------------------------------------------------|

E|---------------------12------------------------------------|
B|--------------12b14-----12b14-12b14r12-10--12-14-15--------|
G|------------9------------------------------------------14--|
D|-------9h11------------------------------------------------|
A|-9h11------------------------------------------------------|
E|-----------------------------------------------------------|

E|-----------------------------------------------------|
B|-12------------------10/12-10------------------------|
G|----14-12-14-12-11-----------12-11--9----9/11-9-7-7--|
D|--------------------------------------12-------------|
A|-----------------------------------------------------|
E|-----------------------------------------------------|

Verse 
e|------------------------------------------------------------------------|
B|------------------------------------------------------------------------|
G|---------------------------7-7-7-7-----------------------------7-7-7-7--|
D|-7-7-7-7-7-7-7-7--5-5-5-5--7-7-7-7---7-7-7-7-7-7-7-7--5-5-5-5--7-7-7-7--|
A|-7-7-7-7-7-7-7-7--5-5-5-5--5-5-5-5---7-7-7-7-7-7-7-7--5-5-5-5--5-5-5-5--|
E|-5-5-5-5-5-5-5-5--3-3-3-3------------5-5-5-5-5-5-5-5--3-3-3-3-----------|

e|-----------------------------------|
B|-----------------------------------|
G|-4-4-4-4-4-4-4-4-------------------|
D|-4-4-4-4-4-4-4-4--5-5-5-5-5-5-5-5--|
A|-2-2-2-2-2-2-2-2--5-5-5-5-5-5-5-5--|
E|------------------3-3-3-3-3-3-3-3--|

e|-----------------------------------|
B|-----------------------------------|
G|-----------------------------------|
D|-7-7-7-7-7-7-7-7--7-7-7-7-7-7-7-7--|
A|-7-7-7-7-7-7-7-7--7-7-7-7-7-7-7-7--|
E|-5-5-5-5-5-5-5-5--5-5-5-5-5-5-5-5--|

Chorus
e|--------------------------------------------------------------------------|
B|--------------------------------------------------------------------------|
G|----------7-7-7-7-----------7-7-7-7------------7-7-7-7-----------7-7-7-7--|
D|-5-5-5-5--7-7-7-7--7-7-7-7--7-7-7-7---5-5-5-5--7-7-7-7--7-7-7-7--7-7-7-7--|
A|-5-5-5-5--5-5-5-5--7-7-7-7--5-5-5-5---5-5-5-5--5-5-5-5--7-7-7-7--5-5-5-5--|
E|-3-3-3-3-----------5-5-5-5------------3-3-3-3-----------5-5-5-5-----------|

e|-----------------------------------------|
B|-----------------------------------------|
G|----------7-7-7-7------------------------|
D|-5-5-5-5--7-7-7-7--7-7-7-7--9-9-9-9-9-9--|
A|-5-5-5-5--5-5-5-5--7-7-7-7--9-9-9-9-9-9--|
E|-3-3-3-3-----------5-5-5-5--7-7-7-7-7-7--|

e|-------------------------------|
B|-------------------------------|
G|----------7-7-7-7-----------7--|
D|-5-5-5-5--7-7-7-7--7-7-7-7--7--|
A|-5-5-5-5--5-5-5-5--7-7-7-7--5--|
E|-3-3-3-3-----------5-5-5-5-----|
   ............p.m.............
e|-------------------------------|
B|-------------------------------|
G|----------7-7-7-7-----------7--|
D|-5-5-5-5--7-7-7-7--7-7-7-7--7--|
A|-5-5-5-5--5-5-5-5--7-7-7-7--5--|
E|-3-3-3-3-----------5-5-5-5-----|
   ............p.m............. 
e|-------------------------------|
B|-------------------------------|
G|----------7-7-7-7-----------7--|
D|-5-5-5-5--7-7-7-7--7-7-7-7--7--|
A|-5-5-5-5--5-5-5-5--7-7-7-7--5--|
E|-3-3-3-3-----------5-5-5-5-----|

e|---------------|
B|---------------|
G|----7-----7-7--|
D|-5--7--7--7-7--|
A|-5--5--7--5-5--|
E|-3-----5-------|
Tap to rate this tab
# A B C D E F G H I J K L M N O P Q R S T U V W X Y Z