Song name
# A B C D E F G H I J K L M N O P Q R S T U V W X Y Z

Bad Religion - Hear It tab

--------------------------------------------------------------------------------- 
                         HEAR IT - Bad Religion
--------------------------------------------------------------------------------- 

By: Terry (BadReligion_Believer5@hotmail.com) 

Intro 
e|-----------------------------------------------------------------------| 
B|-----------------------------------------------------------------------| 
G|-----------------------------------------------------------------------| 
D|-------------------5-5-5-5-5-5-5-5--7-7-7-7-7-7-7-7-----------7-7-7-7--| 
A|--7-7-7-7-7-7-7-7--3-3-3-3-3-3-3-3--5-5-5-5-5-5-5-5--5-5-5-5--5-5-5-5--| 
E|--5-5-5-5-5-5-5-5------------------------------------3-3-3-3-----------| 

Verse 
e|----------------------------------------------| 
B|----------------------------------------------| 
G|----------------------------------------------| 
D|-------------------5-5-5-5--------------------| 
A|--7-7-7-7-7-7-7-7--3-3-3-3--5-5-5-5--7-7-7-7--| 
E|--5-5-5-5-5-5-5-5-----------3-3-3-3--5-5-5-5--| 

Chorus 
e|-------------------------| 
B|-------------------------| 
G|-------------------------| 
D|-----5--7----------------| 
A|--3--3--5--5-5-5--7-7-7--| 
E|--1--------3-3-3--5-5-5--| 

Fill 
e|---------------------------------------------| 
B|---------------------------------------------| 
G|-----------------------------2---------------| 
D|------------------------2h5-----5p2----------| 
A|-------------3-----3h5---------------5p3-----| 
E|--5-5--3--5-----5-------------------------5--| 

================================================================================
Tap to rate this tab
# A B C D E F G H I J K L M N O P Q R S T U V W X Y Z