Song name
# A B C D E F G H I J K L M N O P Q R S T U V W X Y Z

Bad Religion - Leave Mine To Me tab

---------------------------------------------------------------------------------------
                           LEAVE MINE TO ME - Bad Religion 
---------------------------------------------------------------------------------------

By: Terry (BadReligion_Believer5@hotmail.com) 

Intro 
e|-------------------------------------| 
B|-------------------------------------| 
G|-------------------------------------| 
D|--7-7-7--7-7-7-----------------------| 
A|--5-5-5--5-5-5--1p0-----0h3----------| 
E|---------------------1--------3p1p0--| 

e|------------------------------------------------------------------------| 
B|------------------------------------------------------------------------| 
G|------------------------------------------------------------------------| 
D|--7-7-7-7-7--3-3-3-3-3-------------5-5-5-5-5----------------------------| 
A|--5-5-5-5-5--1-1-1-1-1--3-3-3-3-3--3-3-3-3-3--8-8-8-8-8-8--7-7-7-7-7-7--| 
E|------------------------1-1-1-1-1-------------6-6-6-6-6-6--5-5-5-5-5-5--| 

Verse 
e|----------------------------------------------| 
B|----------------------------------------------| 
G|----------------------------------------------| 
D|--7-7-7-7-7--5-5-5-5-5--3-3-3-3-3--5-5-5-5-5--| 
A|--5-5-5-5-5--3-3-3-3-3--1-1-1-1-1--3-3-3-3-3--| 
E|----------------------------------------------| 

e|----------------------------------------------| 
B|----------------------------------------------| 
G|----------------------------------------------| 
D|--3-3-3-3-3-----------------------------------| 
A|--1-1-1-1-1--3-3-3-3-3--5-5-5-5-5--7-7-7-7-7--| 
E|-------------1-1-1-1-1--3-3-3-3-3--5-5-5-5-5--| 

Chorus 
e|---------------------------------------------------------------------------------| 
B|---------------------------------------------------------------------------------| 
G|---------------------------------------------------------------------------------| 
D|--7-7-7--7-7-7-----------------------7-7-7-7-7--3-3-3-3-3-------------5-5-5-5-5--| 
A|--5-5-5--5-5-5--1p0-----0h3----------5-5-5-5-5--1-1-1-1-1--3-3-3-3-3--3-3-3-3-3--| 
E|---------------------1--------3p1p0------------------------1-1-1-1-1-------------| 

Bridge 
e|----------------------------------------------------------| 
B|----------------------------------------------------------| 
G|----------------------------------------------------------| 
D|--7-7-7-7-7--5--7-7-7-7-7--3--7-7-7-7-7--5--7-7-7-7-7--3--| 
A|--5-5-5-5-5--3--5-5-5-5-5--1--5-5-5-5-5--3--5-5-5-5-5--1--| 
E|----------------------------------------------------------| 

e|------------------------| 
B|------------------------| 
G|------------------------| 
D|--3-3-3-3-3--5-5-5-5-5--| 
A|--1-1-1-1-1--3-3-3-3-3--| 
E|------------------------| 

Outro 
e|----------------------------------------------------------------| 
B|----------------------------------------------------------------| 
G|----------------------------------------------------------------| 
D|--7-7-7-7-7--5--7-7-7-7-7--3--7-7-7-7-7--5--7-7-7-7-7--3--7\\\--| 
A|--5-5-5-5-5--3--5-5-5-5-5--1--5-5-5-5-5--3--5-5-5-5-5--1--5\\\--| 
E|----------------------------------------------------------------| 

Its not tuned wrong, the ENTIRE ALBUM "STRANGER THAN FICTION" IS WRITTEN IN 
Eb DROP TUNING!!!! 

Enjoi! 

And play it right!!!!!! 

===============================================================================
Tap to rate this tab
# A B C D E F G H I J K L M N O P Q R S T U V W X Y Z