Guitaretab - guitar tabs
Song name
# A B C D E F G H I J K L M N O P Q R S T U V W X Y Z

Bad Religion - The Hippy Killers tab

--------------------------------------------------------------------------------- 
                        THE HIPPY KILLERS - Bad Religion
--------------------------------------------------------------------------------- 

By: Terry (BadReligion_Believer5@hotmail.com) 

Intro 
e|---------------------------| 
B|---------------------------| 
G|---------------------------| 
D|--9-9-9-9-9-9\7/9--5-5-----| 
A|--7-7-7-7-7-7\5/7--3-3--5--| 
E|------------------------3--| 

Verse 
e|---------------------------| 
B|---------------------------| 
G|---------------------------| 
D|--9-9-9-9-9-9\7/9--5-5-----| 
A|--7-7-7-7-7-7\5/7--3-3--5--| 
E|------------------------3--| 

Chorus 
e|-------------------------------------------------------| 
B|-------------------------------------------------------| 
G|-------------------------------------------------------| 
D|--9-9-9-9-9-9\7/9-------------9-9-9-9-9-9\7/9----------| 
A|--7-7-7-7-7-7\5/7--3-3--2-----7-7-7-7-7-7\5/7--3-3--5--| 
E|---------------------------3---------------------------| 

Bridge 
e|--------------------------------------------------| 
B|--------------------------------------------------| 
G|--------------------------------------------------| 
D|--9-9-9-9\7/9--9-9-9-9\7/9--9-9-9-9\7/9--12\11\7--| 
A|--7-7-7-7\5/7--7-7-7-7\5/7--7-7-7-7\5/7--10\-9\5--| 
E|--------------------------------------------------| 
[ Tab from: http://www.guitaretab.com/b/bad-religion/34667.html ]
Solo 
e|-------------------------------------------------------------------------| 
B|------------------------------------12-12-12--13-13-13--15-15-15--17-17--| 
G|--9-9-9--11-11-11--12-12-12--14-14---------------------------------------| 
D|-------------------------------------------------------------------------| 
A|-------------------------------------------------------------------------| 
E|-------------------------------------------------------------------------| 

e|------------------------------------------------------------------------------| 
B|---------17---------17---------17---------17---------17-17-17-17-17-17-17-17--| 
G|--14h16------14h16------14h16------14h16------14h16---------------------------| 
D|------------------------------------------------------------------------------| 
A|------------------------------------------------------------------------------| 
E|------------------------------------------------------------------------------| 

Outro 
e|----------------------------------------------------| 
B|----------------------------------------------------| 
G|----------------------------------------------------| 
D|-------------------------------------9-9-9-9\7/9~~--| 
A|--3-3--2-----3-3--5--3-3--5--3-3--5--7-7-7-7\5/7~~--| 
E|----------3-----------------------------------------| 

=================================================================================
Related for The Hippy Killers tab