Song name
# A B C D E F G H I J K L M N O P Q R S T U V W X Y Z

Bad Religion - Sometimes I Feel Like tab

Artist: Bad Religion
Song: Sometimes I feel like...
Album: No Control
Tuning: Standard
Tabbed by: Brandon C.

Hey this was a attempt to tab a really great song. If you have any suggestions please 
feel free to put your input! (:

Intro
|----------------|----------------|----------------|
|----------------|----------------|----------------|
|-5-5-5--7-8-8-8-|-5-5-5--7-8-8-8-|-5-5-5--7-8-8-8-|
|-5-5-5--7-8-8-8-|-5-5-5--7-8-8-8-|-5-5-5--7-8-8-8-|
|-3-3-3--5-6-6-6-|-3-3-3--5-6-6-6-|-3-3-3--5-6-6-6-|
|----------------|----------------|----------------|

|-------------------|
|-------------------|
|----------10-10-10-|
|-8-8-8--8-10-10-10-|
|-8-8-8--8--8--8--8-|
|-6-6-6--6----------|

Verse
|------------------|------------------|------------------|-------------|
|------------------|------------------|------------------|-------------|
|-5-5-5--7-8-8-7-7-|-5-5-5--5---------|-5-5-5--7-8-8-7-7-|-------------|
|-5-5-5--7-8-8-7-7-|-5-5-5--5-8-8-8-8-|-5-5-5--7-8-8-7-7-|-6-6-6-8-8-8-|
|-3-3-3--5-6-6-5-5-|-3-3-3--3-8-8-8-8-|-3-3-3--5-6-6-5-5-|-6-6-6-8-8-8-|
|------------------|----------6-6-6-6-|------------------|-4-4-4-6-6-6-|

|------------------|------------------|------------------|-------------|
|------------------|------------------|------------------|-------------|
|-5-5-5--7-8-8-7-7-|-5-5-5--5---------|-5-5-5--7-8-8-7-7-|-------------|
|-5-5-5--7-8-8-7-7-|-5-5-5--5-8-8-8-8-|-5-5-5--7-8-8-7-7-|-6-6-6-8-8-8-|
|-3-3-3--5-6-6-5-5-|-3-3-3--3-8-8-8-8-|-3-3-3--5-6-6-5-5-|-6-6-6-8-8-8-|
|------------------|----------6-6-6-6-|------------------|-4-4-4-6-6-6-|

Pre-Chorus
|---------------------|---------------------|
|---------------------|---------------------|
|---------------------|---------------------|
|-6-6-6-6-6-6-6-6-6-6-|-8-8-8-8-8-8-8-8-8-8-|
|-6-6-6-6-6-6-6-6-6-6-|-8-8-8-8-8-8-8-8-8-8-|
|-4-4-4-4-4-4-4-4-4-4-|-6-6-6-6-6-6-6-6-6-6-|

|---------------------|---------------------|
|---------------------|---------------------|
|---------------------|---------------------|
|-6-6-6-6-6-6-6-6-6-6-|-8-8-8-8-8-8-8-8-8-8-|
|-6-6-6-6-6-6-6-6-6-6-|-8-8-8-8-8-8-8-8-8-8-|
|-4-4-4-4-4-4-4-4-4-4-|-6-6-6-6-6-6-6-6-6-6-|

Chorus {I may be wrong but I think there is continuous sliding up and down the neck}
|------|------|------|------|
|------|------|------|------|
|------|------|------|------|
|-X--X-|-X--X-|-X--X-|-X--X-|
|-X--X-|-X--X-|-X--X-|-X--X-|
|-X--X-|-X--X-|-X--X-|-X--X-|

Repeat: Intro
Verse
Pre-Chorus
Chorus

Post-Chorus
|-------------|----------------|-------------|----------------|
|-------------|----------------|-------------|----------------|
|-5-5-5-------|-10-10-10-8-----|-5-5-5-------|----------------|
|-5-5-5-8-8-8-|-10-10-10-8-8-8-|-5-5-5-6-6-6-|-5--5-5-5-5-5-5-|
|-3-3-3-8-8-8-|--8--8--8-6-8-8-|-3-3-3-6-6-6-|-5--5-5-5-5-5-5-|
|-------6-6-6-|------------6-6-|-------4-4-4-|-3--3-3-3-3-3-3-|

Repeat: Pre-Chorus
Chorus

*~END~*
Tap to rate this tab
# A B C D E F G H I J K L M N O P Q R S T U V W X Y Z