Song name
# A B C D E F G H I J K L M N O P Q R S T U V W X Y Z

Bad Religion - O Come O Come Emmanuel tab

------------------------------------------------------------------------
                                   O Come, O Come Emmanuel - Bad Religion
------------------------------------------------------------------------
Tabbed by: gingergod98
E-mail: eoin.lyness@gmail.com
YouTube: http://youtube.com/iAmTehGingerGod

This is my first tab. This song was released today from Bad Religion's new album 
Christmas Songs so I decided to try and tab it ASAP because it's so awesome!

Tuning: E Standard

*INTRO*
Guitar 1
e|-----------------------------------------------------------------|
B|-----------------------------------------------------------------|
G|-11------------------------------11------------------------------|
D|-----11--9--7--6--7----------------11--9--7--6h7p6--7------------|
A|------------------------7----------------------------------------|
E|-----------------------------------------------------------------|

e|-----------------------------------------------------------------|
B|-----------------------------------------------------------------|
G|-11--------------------------------------------------------------|
D|-----11--9--7--6--7----------------------------------------------|
A|----------------------7--7/9--11--11/12--14--16--17/19--20--21---|
E|-----------------------------------------------------------------|

 Guitar 2
e|-----------------------------------------------------------------|
B|-----------------------------------------------------------------|
G|------------9------7---------------------------------------------|  x4
D|----4-------9------7---------------------------------------------|
A|----4-------7------5---------------------------------------------|
E|----2------------------------------------------------------------|

*VERSE*
e|-----------------------------------------------------------------|
B|-----------------------------------------------------------------|
G|--------------------7-------------9------------------------------|
D|-----4--------------7---(x8)------9---(x8)------4----------------|
A|-----4---(x20)------5-------------7-------------4---(x8)---------|
E|-----2------------------------------------------2----------------|
       *              *             *             *

*PRE-CHORUS*
e|-----------------------------------------------------------------|
B|-----------------------------------------------------------------|
G|------7-------------------------7------------9-------------------|
D|------7--(x16)-----4------------7--(x8)------9--(x8)---7---------|
A|------5------------4--(x8)------5------------7---------7--(x8)---|
E|-------------------2-----------------------------------5---------|

e|-----------------------------------------------------------------|
B|-----------------------------------------------------------------|
G|-----9------11------6-------7-------------------7------9---------|
D|-----9------11------6-------7---------4---------7------9---------|
A|-----7-------9------4-------5---------4---------5------7---------|
E|--------------------------------------2--------------------------|

(repeat intro)

Lead around 1:23
e|-----------------------------------------------------------------|
B|--------17b19--19br17--17--17b19~~~~-----------------------------|
G|-----------------------------------------------------------------|
D|-----------------------------------------------------------------|
A|-----------------------------------------------------------------|
E|-----------------------------------------------------------------|

Haven't figured out the outro riff just yet. I'll edit this as soon as I get it. 

************************************

| /   slide up
| \   slide down
| h   hammer-on
| p   pull-off
| ~   vibrato
| +   harmonic
| x   Mute note
| b   Bend
| pb  Pre-bend
| br  Bend release
| pbr Pre-bend release
| brb Bend release bend

************************************
Tap to rate this tab
# A B C D E F G H I J K L M N O P Q R S T U V W X Y Z