Song name
# A B C D E F G H I J K L M N O P Q R S T U V W X Y Z

Bad Religion - Automatic Man tab

The other version was really helpful but it was incomplete. Thought I'd make one 
of my own. Hopefully you'll find it easier to read and play. 

Verse 1                 Verse End
B--------------------|-----------|
G--7-x-x-x-----8-10--|--7--------|
D--7-x-x-x--10-8-10--|--7--10-8--|
A--5-x-x-x--10-6-8---|--5--10-8--|
E-----------8--------|-----8--6--|

Verse 2
e------------------------------|
B------------------------------|
G------------------------------|
D--777--5--888-777--5-88-1010--|
A--777--5--888-777--5-88-1010--|
E--555--3--666-555--3-66-8-8---|

PreChorus1
e--10-10-10----|
B--10-10-10----|
G--12-12-12(b)-|
D--------------|
A--------------|
E--------------|

Chorus
e-----------------------------|
B-----------------------------|
G--777------------------------|
D--777-10-888--5--1010101010--|
A--555-10-888--5--1010101010--|
E------8--666--3--8-8-8-8-8---|

Chorus end
e---------------------|
B---------------------|
G---------------------|
D--88888888-77777777--|
A--88888888-77777777--|
E--66666666-55555555--|

Verse 1 w/o mute notes
B----------------|-----------|
G--777-----8-10--|--7--------|
D--777--10-8-10--|--7--10-8--|
A--555--10-6-8---|--5--10-8--|
E-------8--------|-----8--6--|

Verse 2
e------------------------------|
B------------------------------|
G------------------------------|
D--777--5--888-777--5-88-1010--|
A--777--5--888-777--5-88-1010--|
E--555--3--666-555--3-66-8-8---|

PreChorus2
e------------|
B------------|
G------------|
D--77777777--|
A--77777777--|
E--55555555--|

Chorus 2
e----------------------|
B----------------------|
G--777-----------------|
D--777-10-888-333-555--|
A--555-10-888-333-555--|
E------8--666-111-333--|

e----------------------|
B----------------------|
G--777-----------------|
D--777-10-888-333-777--|
A--555-10-888-333-777--|
E------8--666-111-555--|

PostChorus
e----------------------------------------------------|
B----------------------------------------------------|
G----------------------------------------------------|
D--88888888--1010101010101010--88888888--7777777777--|
A--88888888--1010101010101010--88888888--7777777777--|
E--66666666--8-8-8-8-8-8-8-8---66666666--5555555555--|
Tap to rate this tab
 
# A B C D E F G H I J K L M N O P Q R S T U V W X Y Z