Guitaretab - guitar tabs
Song name
# A B C D E F G H I J K L M N O P Q R S T U V W X Y Z

Bad Religion - Let Them Eat War tab

Band: Bad Religion
Song: Let Them Eat War
Album: The Empire Strikes First

Intro: Play 2x

E|-----------------------------------------------------------|
B|-----------------------------------------------------------|
G|--00-22-44-5-4--44--44-55-77-9-7--55h7p5-44-5-4--22h4p2-0--|
D|-----------------------------------------------------------|
A|-----------------------------------------------------------|
E|-----------------------------------------------------------|

Verse: Play 2x

E|----------------------------------------------------------|
B|------------------------------xxxxxxxxxxxx----------------|
G|--xxxxxxxxxxxx--xxxxxxxxxxxx--555555555555--xxxxxxxxxxxx--|
D|--555555555555--333333333333--555555555555--555555555555--|
A|--555555555555--333333333333--333333333333--555555555555--|
E|--333333333333--111111111111----------------333333333333--|

Chorus:

E|-----------(Play-2x)----------------|
B|------------------------------------|
G|--88888888--55555555----------------|
D|--88888888--55555555--555555555555--|
A|--66666666--33333333--555555555555--|
E|----------------------333333333333--|

E|----------------------------------|
B|----------------------------------|
G|--88888888--55555555--------------|
D|--88888888--55555555--5555--8888--|
A|--66666666--33333333--5555--8888--|
E|----------------------3333--6666--|

(There's an urgent...)
E|------------------------------------|
B|------------------------------------|
G|--88888888--------------------------|
D|--88888888--33333333--555555555555--|
A|--66666666--33333333--555555555555--|
E|------------11111111--333333333333--|
[ Tab from: http://www.guitaretab.com/b/bad-religion/50235.html ]
(Declining pride...) - Also play Intro
E|----------------------------------------------------------|
B|----------------------------------------------------------|
G|------------------------------555555555555----------------|
D|--555555555555--333333333333--555555555555--555555555555--|
A|--555555555555--333333333333--333333333333--555555555555--|
E|--333333333333--111111111111----------------333333333333--|

Bridge:

E|------------------------------------------------------------3--|
B|----------------------------------------------------------3----|
G|--2p0h2p0h2p0h2p0h2p0h2p0-4h5p4-9p7p5-7p5p4-5p4p2-4-2h4p2------|
D|---------------------------------------------------------------|
A|---------------------------------------------------------------|
E|---------------------------------------------------------------|

E|-------------12--10--|
B|--/121212------------|
G|----------12---------|
D|---------------------|
A|---------------------|
E|---------------------|

(We've got to...)
E|------------------------|
B|------------------------|
G|--------------5~--------|
D|--5~----3~----5-----5~--|
A|--5-----3-----3-----5---|
E|--3-----1-----------3---|

(Here comes another ration...)
E|-----------------------------------------------------------|
B|-----------------------------------------------------------|
G|--00-22-44-5-4--44--44-55-77-9-7--55h7p5-44-5-4--22h4p2-0--|
D|-----------------------------------------------------------|
A|-----------------------------------------------------------|
E|-----------------------------------------------------------|

Ending:

E|----------------|
B|----------------|
G|--00-22-44-5-4--|
D|----------------|
A|----------------|
E|----------------|
Related for Let Them Eat War tab