Song name
# A B C D E F G H I J K L M N O P Q R S T U V W X Y Z

Bad Religion - Boot Stomping On A Human Face Forever tab

Band: Bad Religion
Song: Boot Stomping On A Human Face Forever
Album: The Empire Strikes First

Intro:

E|---------------------------------------|
B|---------------------------------------|
G|---------------------------------------|
D|--77-8-7---8-7~----77-8-7-5-3333-5-2~--|
A|---------8-----------------------------|
E|---------------------------------------|

Verse: Play 2x

E|----------------------------------------------------------|
B|----------------------------------------------------------|
G|--77777---------77777---------77777-----------------------|
D|--77777--88888--77777--88888--77777--55555--33333--22222--|
A|--55555--88888--55555--88888--55555--55555--33333--22222--|
E|---------66666---------66666---------33333--11111--00000--|

Chorus:

E|---------------(Play-3x)------------------|
B|------------------------------------------|
G|--777-------444---------------------------|
D|--777--444--444--777--55555555--77777777--|
A|--555--444--222--777--55555555--77777777--|
E|-------222-------555--33333333--55555555--|

(I hope it will last...)
E|---------------------|
B|---------------------|
G|--777-------4-4------|
D|--777--555--4-4--7~--|
A|--555--555--2-2--7---|
E|-------333-------5---|

Solo:

E|------------------------------------------------------------------|
B|------------------------10-12-10----------------10----10----------|
G|------------------------10-12----10-------------10-12----12-10/9--|
D|--7~--77-8-7-5-7h8p7~---------------12p10h12-12-------------------|
A|------------------------------------------------------------------|
E|------------------------------------------------------------------|

E|---------------------------------------------------|
B|-------------------------10------------10----------|
G|-----------10-10--10-12b----10--12b-------12-10-9--|
D|-----10-12----------------------12b----------------|
A|--12-----------------------------------------------|
E|---------------------------------------------------|
Tap to rate this tab
# A B C D E F G H I J K L M N O P Q R S T U V W X Y Z