Song name
# A B C D E F G H I J K L M N O P Q R S T U V W X Y Z

Bad Religion - The Hopeless Housewife tab

Tabbed by Franco Self



e|------------------------------------------------|
B|------------------------------------------------|
G|-999999-555555--------777777--------------------|
D|-999999-555555-555555-777777--------------------|     <-----X2
A|-777777-333333-555555-555555--------------------|
E|---------------333333---------------------------|



e|-------------------------------------|
B|-------------------------------------|
G|---------55555555-7-777--7-777-------|
D|-2222222-55555555-7-777--7-777-------|      <------ X2
A|-2222222-33333333-5-555--5-555-------|
E|-0000000-----------------------------|


e|-------------------------------------|
B|-------------------------------------|
G|-------------5-77777-7-78------------|
D|-2-22-4-5-55-5-55555-7-78------------|      <------X2
A|-2-22-4-5-55-3-55555-5-56------------|
E|-0-00-2-3-33-------------------------|

e|------------------------------------------------|
B|------------------------------------------------|
G|-999999-555555--------777777--------------------|
D|-999999-555555-555555-777777--------------------|     <-----X2
A|-777777-333333-555555-555555--------------------|
E|---------------333333---------------------------|

e|-------------------------------------|
B|-------------------------------------|
G|-------------5-77777-7-78------------|
D|-2-22-4-5-55-5-55555-7-78------------|      <------X2
A|-2-22-4-5-55-3-55555-5-56------------|
E|-0-00-2-3-33-------------------------|

e|-------------------------------------|
B|-------------------------------------|
G|-999-555-----77-7--------------------|
D|-999-555-555-77-7--------------------|
A|-777-333-555-55-5--------------------|
E|---------333-------------------------|


and that's the whole song
Tap to rate this tab
 
# A B C D E F G H I J K L M N O P Q R S T U V W X Y Z