Song name
# A B C D E F G H I J K L M N O P Q R S T U V W X Y Z

Bad Religion - Beyond Electric Dreams tab

-------------------------------------------------------------------------------
			    Beyond electric dreams- bad religion
-------------------------------------------------------------------------------
Tabbed by:Kenny
Email:underestimated71@yahoo.com

Tuning:idk

e|---------------------------------------------------------------------------|
B|---------------------------------------------------------------------------|
G|---7--7777775--------------------------------------------------------------|
D|---7--7777777-----5555-/-14-14-14-14-----99999999--9/8--88888--------------|
A|---5--5555555-----5555-/-14-14-14-14-----99999999--9/8--88888--------------|
E|------------------3333-/-12-12-12-12-----77777777--7/6--66666--------------|

ok thats it. im not sure if its right. u decide. just dont email me saying how much u 
me. i dont care.
Tap to rate this tab
 
# A B C D E F G H I J K L M N O P Q R S T U V W X Y Z