Guitaretab - guitar tabs
Song name
# A B C D E F G H I J K L M N O P Q R S T U V W X Y Z

Bad Religion - Atheist Peace tab

Atheist peace
Bad religion
lead guitar

e----------------------------------------------|
b----6----5------------------------------------|
g--------------7----5--------------------------|
d------------------------7--------3----5-------|
a----------------------------------------------|
e----------------------------------------------|

e-------------------------------------------------------------------------|
b-------------------------------------------------------------------------|
g--------------10-10-12-------------10-10-12------------------------10----|
d--12-12-12-12-10-10-12-12-12-12-12-10-10-12--8--8-8-8-8---8--8---10-10-|
a-12-12-12-12--8--8-10-12-12-12-12-8--8-10-8-8-8-8-8---8-8----8-10-|
e-10-10-10-10----------10-10-10-10-----------6-6-6-6-6---6--6-------8-|

e--------------|
b--------------|
g----10--------|
d-10-10-10-10--|
a-10--8-10-10--|
e-8------8--8--|

e-------------------------------------------------------------------------|
b-------------------------------------------------------------------------|
g--------------10-10-12-------------10-10-12------------------------10----|
d--12-12-12-12-10-10-12-12-12-12-12-10-10-12--8--8-8-8-8---8--8---10-10-|
a-12-12-12-12--8--8-10-12-12-12-12-8--8-10-8-8-8-8-8---8-8----8-10-|
e-10-10-10-10----------10-10-10-10-----------6-6-6-6-6---6--6-------8-|

e--------------|
b--------------|
g----10--------|
d-10-10-10-10--|
a-10--8-10-10--|
e-8------8--8--|

e---------------------------------------------------------------------------|
b---------------------------------------------------------------------------|
g--10-10-10-10-5-5-5-5-7-7-7-7-7-7-7-7---------10---------------------------|
d--10-10-10-10-5-5-5-5-7-7-7-7-7-7-7-7-8-8-8-8-10--10-10--12-12-12-12-12-12-|
a---6--6--6--6-3-3-3-3-5-5-5-5-5-5-5-5-8-8-8-8--8--10-10--12-12-12-12-12-12-|
e--------------------------------------6-6-6-6------8--8--10-10-10-10-10-10-|

e------------|
d------------|
g------------|
d-12-12------|
a-12-12------|
e-10-10------|

e---------------------------------------------------------------------------|
b---------------------------------------------------------------------------|
g--10--10-------------------------------------------------------------------|
d--10--10--10-12-12-12-12-12-12-12-12-8-8-8-8-8-8-8-8-----------------------|
a---8---8--10-12-12-12-12-12-12-12-12-8-8-8-8-8-8-8-8-----------------------|
e-----------8-10-10-10-10-10-10-10-10-6-6-6-6-6-6-6-6-----------------------|
[ Tab from: http://www.guitaretab.com/b/bad-religion/66676.html ]
e----------------------------------------------|
b----6----5------------------------------------|
g--------------7----5--------------------------|
d------------------------7--------3----5-------|
a----------------------------------------------|
e----------------------------------------------|

e-------------------------------------------------------------------------|
b-------------------------------------------------------------------------|
g--------------10-10-12-------------10-10-12------------------------10----|
d--12-12-12-12-10-10-12-12-12-12-12-10-10-12--8--8-8-8-8---8--8---10-10-|
a-12-12-12-12--8--8-10-12-12-12-12-8--8-10-8-8-8-8-8---8-8----8-10-|
e-10-10-10-10----------10-10-10-10-----------6-6-6-6-6---6--6-------8-|

e--------------|
b--------------|
g----10--------|
d-10-10-10-10--|
a-10--8-10-10--|
e-8------8--8--|


e-------------------------------------------------------------------------|
b-------------------------------------------------------------------------|
g--------------10-10-12-------------10-10-12------------------------10----|
d--12-12-12-12-10-10-12-12-12-12-12-10-10-12--8--8-8-8-8---8--8---10-10-|
a-12-12-12-12--8--8-10-12-12-12-12-8--8-10-8-8-8-8-8---8-8----8-10-|
e-10-10-10-10----------10-10-10-10-----------6-6-6-6-6---6--6-------8-|

e--------------|
b--------------|
g----10--------|
d-10-10-10-10--|
a-10--8-10-10--|
e-8------8--8--|


e---------------------------------------------------------------------------|
b---------------------------------------------------------------------------|
g--10-10-10-10-5-5-5-5-7-7-7-7-7-7-7-7---------10---------------------------|
d--10-10-10-10-5-5-5-5-7-7-7-7-7-7-7-7-8-8-8-8-10--10-10--12-12-12-12-12-12-|
a---6--6--6--6-3-3-3-3-5-5-5-5-5-5-5-5-8-8-8-8--8--10-10--12-12-12-12-12-12-|
e--------------------------------------6-6-6-6------8--8--10-10-10-10-10-10-|

e------------|
d------------|
g------------|
d-12-12------|
a-12-12------|
e-10-10------|

e---------------------------------------------------------------------------|
b----------------------------------------------6----5-----------------------|
g--10---10-----------------------------------------------7----5-------------|
d--10---10---10---12-12-12-12-12-12-12-12--------------------------7--------|
a---8----8---10---12-12-12-12-12-12-12-12-----------------------------------|
e-------------8---10-10-10-10-10-10-10-10-----------------------------------|


e---------------------------------------------------------------------------|
b------------6----5---------------------------------------------------------|
g----------------------7----5----10----9----7----5-----7--------------------|
d--3----5-------------------------------------------------------------------|
a---------------------------------------------------------------------------|
e---------------------------------------------------------------------------|
Related for Atheist Peace tab