Song name
# A B C D E F G H I J K L M N O P Q R S T U V W X Y Z

Bad Religion - A Walk tab

TAB: A Walk Bad Religion

INTRO

E|-----------------------|
B|-----------------------|
G|--1010101010101010-----|
D|-----------------------| X2
A|--8-8-8-8-8-8-8-8------|
E|-----------------------|

CHORUS

E|---------------------------------------------------------|
B|---------------------------------------------------------|
G|---7-7-7---7-5--5-5-5-5----------------------------------|
D|---7-7-7---7-5--5-5-5-5-5--5-5-5-5-7-8--8-8-8-8-8-8-8----|
A|---5-5-5-0-5-3--3-3-3-3-5--5-5-5-5-7-8--8-8-8-8-8-8-8----|
E|------------------------3--3-3-3-3-5-6--6-6-6-6-6-6-6----|

VERSE

E|--------------------------------------------|
B|--------------------------------------------|
G|---7-5----7-7-5-5------7-5----7-7-5-5-------|
D|---7-5-5--7-7-5-5-5-5--7-5-5--7-7-5-5-5-5---|
A|---5-3-5--5-5-3-3-5-5--5-3-5--5-5-3-3-5-5---|
E|-------3----------3-3------3----------3-3---|

E|-----------------------------------------------------------------------------|
B|-----------------------------------------------------------------------------|
G|-----------------------------------------------------------------------------|
D|---77777777888888889999999910101010101010101111111111111111111111111111111---|
A|---77777777888888889999999910101010101010101111111111111111111111111111111---|
E|---5555555566666666777777778-8-8-8-8-8-8-8-9-9-9-9-9-9-9-9-9-9-9-9-9-9-9-9---|


E|-----------------|
B|-----------------|
G|-----------------|
D|----7777777777---|
A|----7777777777---|
E|----5555555555---|

OUTRO
E|-----------------------|
B|-----------------------|
G|--1010101010101010-----|
D|-----------------------| X2
A|--8-8-8-8-8-8-8-8------|
E|-----------------------|

E|-------------|
B|-------------|
G|---7---------|
D|---x---------|
A|---5---------|
E|-------------|
Tap to rate this tab
# A B C D E F G H I J K L M N O P Q R S T U V W X Y Z