Guitaretab - guitar tabs
Song name
# A B C D E F G H I J K L M N O P Q R S T U V W X Y Z

Bad Religion - Big Bang tab

Intro|--------|
     |--------|
     |--------| x4
     |-----8--|
     |777776
     |55555-

|-----------------------------------|
|-----------------------------------|
|-----------------------------------|
|----5-------577-----5-----5544-----|  x2
|7777355-7777355-7777355-33332255---|
|5555-33-5555----5555-33-11----33---|

verse1
|---------------------------------|
|---------------------------------|
|---------------------------------|
|--------55555555---------777777-|  x2
|7777777733333333555555555555555--
|55555555--------33333333---------
[ Tab from: http://www.guitaretab.com/b/bad-religion/777.html ]
chorus1
|------------------|
|------------------|
|------------------|
|----5555----7777--| x4
|7777333355555555
|5555----3333----

repeat intro but only play the second part once and add pick slide to the end

Verse

Chorus

Intro part 1


Verse2
|----------------------------------|
|----------------------------------|
|----------------------------------|
|--------77777777--------99999999--| x2
|99999999555555557777777777777777
|77777777--------55555555--------

Chorus2
|-----------------|
|-----------------|
|-----------------|
|----7777----9999-| x4
|9999555577777777-
|7777----5555-----


outro
|-------------|
|-------------|
|-------10----| x4
|99999998-----|
|7777777------|
Related for Big Bang tab