Song name
# A B C D E F G H I J K L M N O P Q R S T U V W X Y Z

Bad Religion - Heaven Is Falling tab

		     Heaven Is Falling - Bad Religion
-------------------------------------------------------------------------------
Tabbed by: Jay
Email:

Tuning: standard

Look, if this tab sucks horribly, I'm sorry. I tried my best to listen to it, but Brett 
it so freakin' fast. Plus it's my first tab, so if it really sucks cut me some slack. 
to the song for the timing.

e|--15b~--15-15--15p13h15---15p13h15---/20-19-------------------------------|
B|----------------------------------------------15p18----------19-----------|
G|-----------------------------------------------------15h17---19---/17-----|
D|--------------------------------------------------------------------------|
A|--------------------------------------------------------------------------|
E|--------------------------------------------------------------------------|

e|--------------------------------------------------------------------------|
B|-------12-14--14/16---16p19--16p19----------------------------------------|
G|---/12------------------------------19-17---------------------------------|
D|--------------------------------------------------------------------------|
A|--------------------------------------------------------------------------|
E|--------------------------------------------------------------------------|

e|---------------------------13b--13--13b--13--13--13b--13--13--13b---------|
B|---------------------------13b------13b----------13b----------13b---------|
G|-14h16--19--16b14--12~----------------------------------------------------|
D|--------------------------------------------------------------------------|
A|--------------------------------------------------------------------------|
E|--------------------------------------------------------------------------|

e|---15~--15p18--------------------------------------------------------------|
B|---------------15~~--------------------------------------------------------|
G|---------------------------------------------------------------------------|
D|---------------------------------------------------------------------------|
A|---------------------------------------------------------------------------|
E|---------------------------------------------------------------------------|
Tap to rate this tab
# A B C D E F G H I J K L M N O P Q R S T U V W X Y Z