Song name
# A B C D E F G H I J K L M N O P Q R S T U V W X Y Z

Bad Religion - Evangerline tab

Bad Relgion-Evangerline solo

 Theres loads of wrong solos. So heres the correct one well as far as i can tell it is anyway
note: I didn't work this out myself but one of my mates did it sounds right to me. any 
that you should happen please send them to me at
Ollysealey@hotmail.com

Evangerline solo
e|-----------------------------------------------------------------------7--------7-----7-------7-----7-------------------------|
b|------------------------------------------------------------------------------------------------------------------------------|
g|------------------------------------------------------------7-----9b--------9b------9b-------9b-----9bp7*----7----------------|
d|------------------------------------------------------7/9-------------------------------------------------------9-------9--7--|
a|------------------------5---5--7--9---10---9---7------------------------------------------------------------------------------|
E|---7-----5-----7----9---------------------------------------------------------------------------------------------------------|


e|-----------------------------------------------------------------------------------|
b|----------------------------------------------------12-----------12------------12--|
g|--------------------------------11---9----11b-----------11b----------11b-----------|
d|--9--11---12--14--12--11-----------------------------------------------------------|
a|-----------------------------------------------------------------------------------|
E|-----------------------------------------------------------------------------------|

      / slide up
     b Bend
     p Pull off

     *bend the 9 up to 11 then pull off and hit the next note before bending back down
Tap to rate this tab
# A B C D E F G H I J K L M N O P Q R S T U V W X Y Z