Song name
# A B C D E F G H I J K L M N O P Q R S T U V W X Y Z

Bad Religion - Modern Man tab

-----------------------------------------------------------------------------
			  Modern Man - Bad Religion
-----------------------------------------------------------------------------

Tuning:Standard

This is the guitar solo in the intro to the song.

e|--------------------16-15-13-16p15p13-16p15p13h15h16-13-11----------|
B|------9------13--14----------------------------------------11-13s11-|
G|-8h10---8s10--------------------------------------------------------|
D|--------------------------------------------------------------------|
A|--------------------------------------------------------------------|
E|--------------------------------------------------------------------|

e|----13-----------------------------------------------------|
B|-13----------------------------------------13p11-----------|
G|-------15-13-13h15p13----15b17-15-13b15r13-------13-12-13~-|
D|----------------------15-----------------------------------|
A|-----------------------------------------------------------|
E|-----------------------------------------------------------|
Tap to rate this tab
# A B C D E F G H I J K L M N O P Q R S T U V W X Y Z