Guitaretab - guitar tabs
Song name
# A B C D E F G H I J K L M N O P Q R S T U V W X Y Z

Bad Religion - Fall To The Ground tab

Fall to the ground-By Bodyjar

E|-----3-3-----------------3-3-----------------------------------------------|
B|-----4-4-----------------4-4-----------------------------------------------|
G|-----5-5-----------------5-5-----------------------------------------------|
D|---5-5-5-----(X3)------5-5-5----------8-8-8-8------------------------------|
A|---3-3-3---------------3-3-3----------8-8-8-8------------------------------|
E|---------4-4-3-3-------------4-4-4-3-3--6-6-6-6----------------------------|

Intro:
E|-------3-6-8-6------------------------------------------------------------|
B|-----4--------------------------------------------------------------------|
G|---5----------------------------------------------------------------------|
D|--------------------------------------------------------------------------|
A|--------------------------------------------------------------------------|
E|--------------------------------------------------------------------------|

Verse:
E|--------------------------------------------------------------------------|
B|--------------------------------------------------------------------------|
G|--------------------------------------------------------------------------|
D|---XX5---------10-10-------XX5--------------------------------------------|
A|---XX3-XX7-XX5--88--------XX3-XX7-XX5-6-6-6-6----------------------------|
E|-------XX5-XX3-----------------XX5-XX3-4-4-4-4----------------------------|
[ Tab from: http://www.guitaretab.com/b/bad-religion/86014.html ]
Verse:
E|--------------------------------------------------------------------------|
B|--------------------------------------------------------------------------|
G|--------------------------------------------------------------------------|
D|---XX5---------10-10-------XX5--------------------------------------------|
A|---XX3-XX7-XX5--88--------XX3-XX7-8-8------------------------------------|
E|-------XX5-XX3-----------------XX5-6-6------------------------------------|

Chorus:
E|--------------------------------------------------------------------------|
B|--------------------------------------------------------------------------|
G|--------------------------------------------------------------------------|
D|---5-5-5-5--------------------5-5-5-5-------------------------------------|
A|---3-3-3-3-7-7-5-5--3-3XX3-3--3-3-3-3-5-5-5-5-----------------------------|
E|-----------5-5-3-3--1-1XX1-1----------3-3-3-3-----------------------------|

Chorus:
E|--------------------------------------------------------------------------|
B|-----5----5----6-6-5------------------------------------------------------|
G|---5----5----5-5-5-5------------------------------------------------------|
D|---------------------6----------------------------------------------------|
A|--------------------------------------------------------------------------|
E|--------------------------------------------------------------------------|

Solo:
E|----------------------------------------------------------------7---------|
B|---5---------3-5-6--5---------6-5-36s5-3-------8-6-5---------------------|
G|-----7s5--------------7s5------------------5-2-5---------5p7p7----5-7-5---|
D|-------------------------------------------------------5------------------|
A|---------3-3--------------3-3---------------------------------------------|
E|--------------------------------------------------------------------------|
Related for Fall To The Ground tab