Song name
# A B C D E F G H I J K L M N O P Q R S T U V W X Y Z

Bad Religion - Land Of Competion tab

Tabbed By: John Khoshaba

The only thing missing is the solo, the reason is becasue I play my own solo on top of 
so here it is.

Verse/Solo Riff
E|---------------------------|
B|---------------------------|
G|---------------------------|
D|--9-9-9-9-9-9--7-7-7-7-7-7-|
A|--7-7-7-7-7-7--5-5-5-5-5-5-|
E|---------------------------|

Chorus
E|------------------------------------------------------|
B|------------------------------------------------------|
G|------------------------------------------------------|
D|--5--5--5-----------7-7-7--9-9-9--5-5-5--7-7-7--9-9-9-|
A|--3--3--3--5--5--5--5-5-5--7-7-7--3-3-3--5-5-5--7-7-7-|
E|-----------3--3--3------------------------------------|

Outro/bridge
..Be careful of the ones who have it all....
E|----------------------|
B|----------------------|
G|----------------------|
D|-9-9-9--5-5-5--7-7-7--|
A|-7-7-7--3-3-3--5-5-5--|
E|----------------------|

Then after that it ends on
E|----------------------|
B|----------------------|
G|----------------------|
D|--5-5-5--7-7-7--------|
A|--3-3-3--5-5-5--------|
E|----------------------|
Tap to rate this tab
 
# A B C D E F G H I J K L M N O P Q R S T U V W X Y Z