Song name
# A B C D E F G H I J K L M N O P Q R S T U V W X Y Z

Bad Religion - New Dark Ages tab

                                  NEW DARK AGES
                           As recorded by Bad Religion
                     (From the 2007 Album NEW MAPS OF HELL)

Words and Music by Bad Religion
Arranged by Bad Religion
Transcribed by Spidey255

Gtr I (E A D G B E) - 'Rhythm'
Gtr II (E A D G B E) - 'Leads'
Gtr III (E A D G B E) - 'Leads 2'
Gtr IV (E A D G B E) - 'Untitled'
Gtr V (E A D G B E) - 'Untitled'

 Intro
  Q=150
  D5
 4/4
  Gtr I
   E  E +S  S  E  E E  E E    E  E +S  S  E  E E  E E
|--------------------------|--------------------------|
|--------------------------|--------------------------|
|--7--7-(7)-7--7--7-7--7-7-|--7--7-(7)-7--7--7-7--7-7-|
|--7--7-(7)-7--7--7-7--7-7-|--7--7-(7)-7--7--7-7--7-7-|
|--5--5-(5)-5--5--5-5--5-5-|--5--5-(5)-5--5--5-5--5-5-|
|--------------------------|--------------------------|
|
| Gtr II
|  Q.          Q.      Q      Q.          Q.      Q
|--------------------------|--------------------------|
|--------------------------|--------------------------|
|--7-----------9------10---|--7-----------9------10---|
|--------------------------|--------------------------|
|--------------------------|--------------------------|
|--------------------------|--------------------------|
|
| Gtr III
|  Q.          Q.      Q      Q.          Q.      Q
|--------------------------|--------------------------|
|--------------------------|--------------------------|
|-10----------12------14---|-10----------12------14---|
|--------------------------|--------------------------|
|--------------------------|--------------------------|
|--------------------------|--------------------------|


  Bb5
   E  E +S  S  E  E E  E E    E  E +S  S  E  E E  E E
|--------------------------|---------------------------|
|--------------------------|---------------------------|
|--------------------------|---------------------------|
|--8--8-(8)-8--8--8-8--8-8-|--8--8-(8)-8--8--8-8--8-8--|
|--8--8-(8)-8--8--8-8--8-8-|--8--8-(8)-8--8--8-8--8-8--|
|--6--6-(6)-6--6--6-6--6-6-|--6--6-(6)-6--6--6-6--6-6--|
|
|  Q.          Q.      Q      Q.          Q.      Q
|--------------------------|---------------------------|
|--------------------------|---------------------------|
|--7-----------9------10---|--7-----------9------10----|
|--------------------------|---------------------------|
|--------------------------|---------------------------|
|--------------------------|---------------------------|
|
|  Q.          Q.      Q      Q.          Q.      Q
|--------------------------|---------------------------|
|--------------------------|---------------------------|
|-10----------12------14---|-10----------12------14----|
|--------------------------|---------------------------|
|--------------------------|---------------------------|
|--------------------------|---------------------------|


  F5
   E  E +S  S  E  E E  E E    E  E +S  S  E  E E  E E
|--------------------------|--------------------------|
|--------------------------|--------------------------|
|--------------------------|--------------------------|
|--3--3-(3)-3--3--3-3--3-3-|--3--3-(3)-3--3--3-3--3-3-|
|--3--3-(3)-3--3--3-3--3-3-|--3--3-(3)-3--3--3-3--3-3-|
|--1--1-(1)-1--1--1-1--1-1-|--1--1-(1)-1--1--1-1--1-1-|
|
|  Q.          Q.      Q      Q.          Q.      Q
|--------------------------|--------------------------|
|--------------------------|--------------------------|
|-14----------12------10---|-14----------12------10---|
|--------------------------|--------------------------|
|--------------------------|--------------------------|
|--------------------------|--------------------------|
|
|  Q.          Q.      Q      Q.          Q.      Q
|--------------------------|--------------------------|
|--------------------------|--------------------------|
|-17----------15------14---|-17----------15------14---|
|--------------------------|--------------------------|
|--------------------------|--------------------------|
|--------------------------|--------------------------|


                                       To Coda
  A
   E E +S  S E E E E E     E  E +S  S E E E E E
|----------------------|------------------------|
|----------------------|------------------------|
|--6-6-(6)-6-6-6-6-6-6-|---6--6-(6)-6-6-6-6-6-6-|
|--7-7-(7)-7-7-7-7-7-7-|---7--7-(7)-7-7-7-7-7-7-|
|--7-7-(7)-7-7-7-7-7-7-|---7--7-(7)-7-7-7-7-7-7-|
|--5-5-(5)-5-5-5-5-5-5-|---5--5-(5)-5-5-5-5-5-5-|
|
|  W                      +W
|----------------------|------------------------|
|----------------------|------------------------|
|--9-------------------|--(9)-------------------|
|----------------------|------------------------|
|----------------------|------------------------|
|----------------------|------------------------|
|
|  W                      +W
|----------------------|------------------------|
|----------------------|------------------------|
|-14-------------------|-(14)-------------------|
|----------------------|------------------------|
|----------------------|------------------------|
|----------------------|------------------------|


 Verse
  D5
  Gtrs II, III
    PM----------------------------------------------------------|
  E S S S S S S S S S S S S S S   S S S S S S S S S S S S S S S S
|-------------------------------|---------------------------------|
|-------------------------------|---------------------------------|
|-7-----------------------------|---------------------------------|
|-7-7-7-7-7-7-7-7-7-7-7-7-7-7-7-|-7-7-7-7-7-7-7-7-7-7-7-7-7-7-7-7-|
|-5-5-5-5-5-5-5-5-5-5-5-5-5-5-5-|-5-5-5-5-5-5-5-5-5-5-5-5-5-5-5-5-|
|-------------------------------|---------------------------------|


  Bb5
    PM------------------------------------------|   PM|   PM|
  E S S S S S S S S S S S S S S   S S S S S S S S E S S E S S
|-------------------------------|------------------------------|
|-------------------------------|------------------------------|
|-------------------------------|------------------------------|
|-8-----------------------------|-----------------8-----8------|
|-8-8-8-8-8-8-8-8-8-8-8-8-8-8-8-|-8-8-8-8-8-8-8-8-8-8-8-8-8-8--|
|-6-6-6-6-6-6-6-6-6-6-6-6-6-6-6-|-6-6-6-6-6-6-6-6-6-6-6-6-6-6--|


                                  $
  F5
    PM------------------------|     PM------------------------|
  E S S S S S S S S S S S S S S   E S S S S S S S S S S S S S S
|-------------------------------|-------------------------------|
|-------------------------------|-------------------------------|
|-------------------------------|-------------------------------|
|-3-----------------------------|-3-----------------------------|
|-3-3-3-3-3-3-3-3-3-3-3-3-3-3-3-|-3-3-3-3-3-3-3-3-3-3-3-3-3-3-3-|
|-1-1-1-1-1-1-1-1-1-1-1-1-1-1-1-|-1-1-1-1-1-1-1-1-1-1-1-1-1-1-1-|


  A5
  E E E E E E E E   E E E E E E E E
|-----------------|------------------|
|-----------------|------------------|
|-----------------|------------------|
|-7-7-7-7-7-7-7-7-|-7-7-7-7-7-7-7-7--|
|-7-7-7-7-7-7-7-7-|-7-7-7-7-7-7-7-7--|
|-5-5-5-5-5-5-5-5-|-5-5-5-5-5-5-5-5--|


 Pre-Chorus
  D5
  E E +S  S E E E E E   E E +S  S E E E E E
|---------------------|---------------------|
|---------------------|---------------------|
|-7-7-(7)-7-7-7-7-7-7-|-7-7-(7)-7-7-7-7-7-7-|
|-7-7-(7)-7-7-7-7-7-7-|-7-7-(7)-7-7-7-7-7-7-|
|-5-5-(5)-5-5-5-5-5-5-|-5-5-(5)-5-5-5-5-5-5-|
|---------------------|---------------------|


  Bb5
  E E +S  S E E E E E   E E +S  S E E E E E
|---------------------|---------------------|
|---------------------|---------------------|
|---------------------|---------------------|
|-8-8-(8)-8-8-8-8-8-8-|-8-8-(8)-8-8-8-8-8-8-|
|-8-8-(8)-8-8-8-8-8-8-|-8-8-(8)-8-8-8-8-8-8-|
|-6-6-(6)-6-6-6-6-6-6-|-6-6-(6)-6-6-6-6-6-6-|


  F5
  E E +S  S E E E E E   E E +S  S E E E E E
|---------------------|---------------------|
|---------------------|---------------------|
|---------------------|---------------------|
|-3-3-(3)-3-3-3-3-3-3-|-3-3-(3)-3-3-3-3-3-3-|
|-3-3-(3)-3-3-3-3-3-3-|-3-3-(3)-3-3-3-3-3-3-|
|-1-1-(1)-1-1-1-1-1-1-|-1-1-(1)-1-1-1-1-1-1-|


  A
  E E +S  S E E E E E   E E +S  S E E E E E
|---------------------|---------------------|
|---------------------|---------------------|
|-6-6-(6)-6-6-6-6-6-6-|-6-6-(6)-6-6-6-6-6-6-|
|-7-7-(7)-7-7-7-7-7-7-|-7-7-(7)-7-7-7-7-7-7-|
|-7-7-(7)-7-7-7-7-7-7-|-7-7-(7)-7-7-7-7-7-7-|
|-5-5-(5)-5-5-5-5-5-5-|-5-5-(5)-5-5-5-5-5-5-|


                            Chorus
  N.C.                       D5                    F5
  Gtr IV                     Gtr II
             \7
             TP
  W          W               E E +S  S E E E E E   E E +S  S E E E E E
|----------|-------------||----------------------|-----------------------|
|----------|-------------||o---------------------|-----------------------|
|----------|-------------||--7-7-(7)-7-7-7-7-7-7-|-----------------------|
|----------|-x-----------||--7-7-(7)-7-7-7-7-7-7-|-3-3-(3)-3-3-3-3-3-3---|
|----------|-x-----------||o-5-5-(5)-5-5-5-5-5-5-|-3-3-(3)-3-3-3-3-3-3---|
|----------|-x-----------||----------------------|-1-1-(1)-1-1-1-1-1-1---|
|
| Gtr V                      Gtr III
|                  \7
|                  TP
| W          H     H         E E +S  S E E E E E   E E +S  S E E E E E
|----------|-------------||----------------------|-----------------------|
|----------|-------------||o---------------------|-----------------------|
|----------|-------------||--7-7-(7)-7-7-7-7-7-7-|-----------------------|
|----------|-------x-----||--7-7-(7)-7-7-7-7-7-7-|-3-3-(3)-3-3-3-3-3-3---|
|----------|-------x-----||o-5-5-(5)-5-5-5-5-5-5-|-3-3-(3)-3-3-3-3-3-3---|
|----------|-------x-----||----------------------|-1-1-(1)-1-1-1-1-1-1---|


                          D.C. al Coda
                          D.C. al Coda
  C5                    G5      A5
  Gtrs II, III
  E E +S  S E E E E E   E E E E E E E E
|---------------------|------------------||
|---------------------|-----------------o||
|-5-5-(5)-5-5-5-5-5-5-|------------------||
|-5-5-(5)-5-5-5-5-5-5-|-5-5-5-5-7-7-7-7--||
|-3-3-(3)-3-3-3-3-3-3-|-5-5-5-5-7-7-7-7-o||
|---------------------|-3-3-3-3-5-5-5-5--||


 Verse
  &
  D5
    PM------------------------|       PM--------------------|
  E S S S S S S S S S S S S S S   E E S S S S S S S S S S S S
|-------------------------------|------------------------------|
|-------------------------------|------------------------------|
|-7-----------------------------|-7-7--------------------------|
|-7-7-7-7-7-7-7-7-7-7-7-7-7-7-7-|-7-7-7-7-7-7-7-7-7-7-7-7-7-7--|
|-5-5-5-5-5-5-5-5-5-5-5-5-5-5-5-|-5-5-5-5-5-5-5-5-5-5-5-5-5-5--|
|-------------------------------|------------------------------|


  Bb5
      PM--------------------|       PM----|     PM----|
  E E S S S S S S S S S S S S   E E S S S S E E S S S S
|-----------------------------|-------------------------|
|-----------------------------|-------------------------|
|-----------------------------|-------------------------|
|-8-8-------------------------|-8-8---------8-8---------|
|-8-8-8-8-8-8-8-8-8-8-8-8-8-8-|-8-8-8-8-8-8-8-8-8-8-8-8-|
|-6-6-6-6-6-6-6-6-6-6-6-6-6-6-|-6-6-6-6-6-6-6-6-6-6-6-6-|


             D.S. al Dbl. Coda
  F5
    PM------------------------|
  E S S S S S S S S S S S S S S
|--------------------------------|
|--------------------------------|
|--------------------------------|
|-3------------------------------|
|-3-3-3-3-3-3-3-3-3-3-3-3-3-3-3--|
|-1-1-1-1-1-1-1-1-1-1-1-1-1-1-1--|


 Bridge
  &&
  Gm                                      F5
  Gtr I
    >                                     >
    E    E   +Q    +H        +W           W          +W
|-------------------------|-------------|----------|--------|
|-(11)-(11)-(11)--(11)----|-(11)--------|----------|--------|
|--12---12--(12)--(12)----|-(12)--------|----------|--------|
|--12---12--(12)--(12)----|-(12)--------|-3--------|-(3)----|
|--10---10--(10)--(10)----|-(10)--------|-3--------|-(3)----|
|-------------------------|-------------|-1--------|-(1)----|


  C                       Gm
  >                        >
  W          +W            W           +W
|----------|------------|-(3)--------|-(3)----|
|-5--------|-(5)--------|-(3)--------|-(3)----|
|-5--------|-(5)--------|-(3)--------|-(3)----|
|-5--------|-(5)--------|--5---------|-(5)----|
|-3--------|-(3)--------|--5---------|-(5)----|
|----------|------------|--3---------|-(3)----|


  N.C.
   <
                             ~~~~~~~~~~~~~~~~
   W           +W           +W           +W
|-[0]--------|-(0)--------|-(0)--------|-(0)----|
|--6---------|-(6)--------|-(6)--------|-(6)----|
|------------|------------|------------|--------|
|------------|------------|------------|--------|
|------------|------------|------------|--------|
|------------|------------|------------|--------|


  Gm                                      C5
  Gtr II
   W                  +W                  e e e e e e e E   +E  E E E E E E E
|-(3)---------------|-(3)---------------|-----------------|-------------------|
|-(3)---------------|-(3)---------------|-----------------|-------------------|
|-(3)---------------|-(3)---------------|-5-5-5-5-5-5-5-5-|-(5)-5-5-5-5-5-5-5-|
|--5----------------|-(5)---------------|-5-5-5-5-5-5-5-5-|-(5)-5-5-5-5-5-5-5-|
|--5----------------|-(5)---------------|-3-3-3-3-3-3-3-3-|-(3)-3-3-3-3-3-3-3-|
|--3----------------|-(3)---------------|-----------------|-------------------|
|
| Gtr III
|  E  E E E E E E E    E  E E E E E E E   e e e e e e e E   +E  E E E E E E E
|-------------------|-------------------|-----------------|-------------------|
|-------------------|-------------------|-----------------|-------------------|
|-------------------|-------------------|-5-5-5-5-5-5-5-5-|-(5)-5-5-5-5-5-5-5-|
|--5--5-5-5-5-5-5-5-|--5--5-5-5-5-5-5-5-|-5-5-5-5-5-5-5-5-|-(5)-5-5-5-5-5-5-5-|
|--5--5-5-5-5-5-5-5-|--5--5-5-5-5-5-5-5-|-3-3-3-3-3-3-3-3-|-(3)-3-3-3-3-3-3-3-|
|--3--3-3-3-3-3-3-3-|--3--3-3-3-3-3-3-3-|-----------------|-------------------|


   Out-Chorus
    D5
   4/4
    Gtr I
     E  E +S  S  E  E E  E E    E  E +S  S  E  E E  E E
||---------------------------|--------------------------|
||o--------------------------|--------------------------|
||---7--7-(7)-7--7--7-7--7-7-|--7--7-(7)-7--7--7-7--7-7-|
||---7--7-(7)-7--7--7-7--7-7-|--7--7-(7)-7--7--7-7--7-7-|
||o--5--5-(5)-5--5--5-5--5-5-|--5--5-(5)-5--5--5-5--5-5-|
||---------------------------|--------------------------|
|
|   Gtr II
|    Q.          Q.      Q      Q.          Q.      Q
||---------------------------|--------------------------|
||o--------------------------|--------------------------|
||---7-----------9------10---|--7-----------9------10---|
||---------------------------|--------------------------|
||o--------------------------|--------------------------|
||---------------------------|--------------------------|
|
|   Gtr III
|    Q.          Q.      Q      Q.          Q.      Q
||---------------------------|--------------------------|
||o--------------------------|--------------------------|
||--10----------12------14---|-10----------12------14---|
||---------------------------|--------------------------|
||o--------------------------|--------------------------|
||---------------------------|--------------------------|


  Bb5
   E  E +S  S  E  E E  E E    E  E +S  S  E  E E  E E
|--------------------------|--------------------------|
|--------------------------|--------------------------|
|--------------------------|--------------------------|
|--8--8-(8)-8--8--8-8--8-8-|--8--8-(8)-8--8--8-8--8-8-|
|--8--8-(8)-8--8--8-8--8-8-|--8--8-(8)-8--8--8-8--8-8-|
|--6--6-(6)-6--6--6-6--6-6-|--6--6-(6)-6--6--6-6--6-6-|
|
|  Q.          Q.      Q      Q.          Q.      Q
|--------------------------|--------------------------|
|--------------------------|--------------------------|
|--7-----------9------10---|--7-----------9------10---|
|--------------------------|--------------------------|
|--------------------------|--------------------------|
|--------------------------|--------------------------|
|
|  Q.          Q.      Q      Q.          Q.      Q
|--------------------------|--------------------------|
|--------------------------|--------------------------|
|-10----------12------14---|-10----------12------14---|
|--------------------------|--------------------------|
|--------------------------|--------------------------|
|--------------------------|--------------------------|


  F5
   E  E +S  S  E  E E  E E    E  E +S  S  E  E E  E E
|--------------------------|--------------------------|
|--------------------------|--------------------------|
|--------------------------|--------------------------|
|--3--3-(3)-3--3--3-3--3-3-|--3--3-(3)-3--3--3-3--3-3-|
|--3--3-(3)-3--3--3-3--3-3-|--3--3-(3)-3--3--3-3--3-3-|
|--1--1-(1)-1--1--1-1--1-1-|--1--1-(1)-1--1--1-1--1-1-|
|
|  Q.          Q.      Q      Q.          Q.      Q
|--------------------------|--------------------------|
|--------------------------|--------------------------|
|-14----------12------10---|-14----------12------10---|
|--------------------------|--------------------------|
|--------------------------|--------------------------|
|--------------------------|--------------------------|
|
|  Q.          Q.      Q      Q.          Q.      Q
|--------------------------|--------------------------|
|--------------------------|--------------------------|
|-17----------15------14---|-17----------15------14---|
|--------------------------|--------------------------|
|--------------------------|--------------------------|
|--------------------------|--------------------------|


  C5
   S S S S S S S S S S S S S S S S
|----------------------------------|
|----------------------------------|
|----------------------------------|
|--5-5-5-5-5-5-5-5-5-5-5-5-5-5-5-5-|
|--3-3-3-3-3-3-3-3-3-3-3-3-3-3-3-3-|
|----------------------------------|
|
|  >
|  W
|----------------------------------|
|----------------------------------|
|--9-------------------------------|
|----------------------------------|
|----------------------------------|
|----------------------------------|
|
|  >
|  W
|----------------------------------|
|----------------------------------|
|-12-------------------------------|
|----------------------------------|
|----------------------------------|
|----------------------------------|


  A5                                     D5
    S  S S S S S S S S S S S S S S S      W           +W
|-------------------------------------||-----------|---------*|
|------------------------------------o||-----------|---------*|
|-------------------------------------||--7--------|--(7)----*|
|---2--2-2-2-2-2-2-2-2-2-2-2-2-2-2-2--||--7--------|--(7)----*|
|---0--0-0-0-0-0-0-0-0-0-0-0-0-0-0-0-o||--5--------|--(5)----*|
|-------------------------------------||-----------|---------*|
|
|  +W                                     W           +W
|-------------------------------------||-----------|---------*|
|------------------------------------o||-----------|---------*|
|--(9)--------------------------------||-10--------|-(10)----*|
|-------------------------------------||-----------|---------*|
|------------------------------------o||-----------|---------*|
|-------------------------------------||-----------|---------*|
|
|  +W                                     W           +W
|-------------------------------------||-17--------|-(17)----*|
|------------------------------------o||-----------|---------*|
|-(12)--------------------------------||-14--------|-(14)----*|
|-------------------------------------||-----------|---------*|
|------------------------------------o||-----------|---------*|
|-------------------------------------||-----------|---------*|


Duration Legend
---------------
W - whole; H - half; Q - quarter; E - 8th; S - 16th; T - 32nd; X - 64th; a - acciaccatura
+ - note tied to previous; . - note dotted; .. - note double dotted
Uncapitalized letters represent notes that are staccato (1/2 duration)
Irregular groupings are notated above the duration line
Duration letters will always appear directly above the note/fret number it represents the
duration for.  Duration letters with no fret number below them represent rests.  Multi-
bar rests are notated in the form Wxn, where n is the number of bars to rest for.  Low
melody durations appear below the staff

Tablature Legend
----------------
 h   - hammer-on
 p   - pull-off
 b   - bend
 pb  - pre-bend
 r   - bend release (if no number after the r, then release immediately)
 /\  - slide into or out of (from/to "nowhere")
 s   - legato slide
 S   - shift slide
  - natural harmonic
[n]  - artificial harmonic
n(n) - tapped harmonic
 ~   - vibrato
 tr  - trill
 T   - tap
 TP  - trem. picking
 PM  - palm muting
\n/  - tremolo bar dip; n = amount to dip
 \n  - tremolo bar down
 n/  - tremolo bar up
/n\  - tremolo bar inverted dip
 =   - hold bend; also acts as connecting device for hammers/pulls
 <>  - volume swell (louder/softer)
 x   - on rhythm slash represents muted slash
 o   - on rhythm slash represents single note slash

Misc Legend
-----------
 |  - bar
||  - double bar
||o - repeat start
o|| - repeat end
*|  - double bar (ending)
 :  - bar (freetime)
 $  - Segno
 &  - Coda
Tempo markers -  = BPM(8/16=s8/s16), where s8 = swing 8ths, s16 = swing 16ths


***************************************************************************************
* Generated using Power Tab Editor by Brad Larsen - http://powertab.guitarnetwork.org *
***************************************************************************************
Tap to rate this tab
# A B C D E F G H I J K L M N O P Q R S T U V W X Y Z