Song name
# A B C D E F G H I J K L M N O P Q R S T U V W X Y Z

Bad Sector - Goodbye tab

----------------------------------------------------------------------------
			     Goodbye - STERR http://www.sterr.ca/about.html
   ----------------------------------------------------------------------------
Tabbed by:deHufter
Email:kurtkill@hotmail.com

Tuning:standard

Guitar 1 Intro + Verse:
    A    E   F#m
e|--5----0----2-------------------------------------------------------------|
B|--5----0----2-------------------------------------------------------------|
G|--6----1----2-------------------------------------------------------------|
D|--7----2----4-------------------------------------------------------------|
A|--7----2----4-------------------------------------------------------------|
E|--5----0----2-------------------------------------------------------------|

Guitar 2 with delay:
e|-:------7h9-------7h9-----:---------------------7h9--10-9-7h9-------------|
B|-:-10-9------10-9-----7h9-:----------------10-9---------------9h10--------|
G|-:------------------------:-3-times-then:---------------------------------|
D|-:------------------------:-----------------------------------------------|
A|-:------------------------:-----------------------------------------------|
E|-:------------------------:-----------------------------------------------|

Guitar 1 Chorus:
    G   D   A   E      G   D   E
e|--3---5---5---0------3---5---7--------------------------------------------|
B|--3---7---5---0------3---7---9--------------------------------------------|
G|--4---7---6---1------4---7---9--------------------------------------------|
D|--5---7---7---2------5---7---9--------------------------------------------|
A|--5---5---7---2------5---5---7--------------------------------------------|
E|--3-------5---0------3----------------------------------------------------|

Guitar 2 Chorus:
e|--------------------------------------------------------------------------|
B|--------------------------------------------------------------------------|
G|--12-12p11-12~-12p11-12~-12p11-11h12-12h14---9-11-7~---6h7h9--------------|
D|--------------------------------------------------------------------------|
A|--------------------------------------------------------------------------|
E|--------------------------------------------------------------------------|

Now repeat Guitar 1 and 2 from verse, this time with distortion.
Then without distortion again until bass interlude.

Guitar 1 fade in to Chorus:
e|--5-5-5-5-5---------------------------------------------------------------|
B|--5-5-5-5-5---------------------------------------------------------------|
G|--6-6-6-6-6---------------------------------------------------------------|
D|--7-7-7-7-7---------------------------------------------------------------|
A|--7-7-7-7-7---------------------------------------------------------------|
E|--5-5-5-5-5---------------------------------------------------------------|

Chorus has a slight alteration in the end:
e|--------------------------------------------------------------------------|
B|------------------------------------------------------------/10-9~-9h10p9-|
G|--12-12p11-12~-12p11-12~-12p11-11h12-12h14---9-11-7~--6h7h9---------------|
D|--------------------------------------------------------------------------|
A|--------------------------------------------------------------------------|
E|--------------------------------------------------------------------------|

Then guitar 1 until end (end on D): (guitar 2 joins strumming these chords)
e|--3---5---5---------------------------------------------------------------|
B|--3---7---5---------------------------------------------------------------|
G|--3---7---6---------------------------------------------------------------|
D|--5---7---7---------------------------------------------------------------|
A|--5---5---7---------------------------------------------------------------|
E|--3-------5---------------------------------------------------------------|

Guitar 2 outro:
e|-----------------------------10~-10p9-10~-10p9-10~-10p9-10/12~------------|
B|--8~-8p7-8~-8p7-8~-8p7-8/10~----------------------------------------------|
G|--------------------------------------------------------------------------|
D|--------------------------------------------------------------------------|
A|--------------------------------------------------------------------------|
E|--------------------------------------------------------------------------|

| /  slide up
| \  slide down
| h  hammer-on
| p  pull-off
| ~  vibrato
| +  harmonic
| x  Mute note
===========================================================================
Tap to rate this tab
 
# A B C D E F G H I J K L M N O P Q R S T U V W X Y Z