Song name
# A B C D E F G H I J K L M N O P Q R S T U V W X Y Z

Bad Seed - Swallowing Knives tab

http://www.myspace.com/badseedpa

Please Rate!

pm = palm mute
~ = vibrato
* = pinch harmonic
tr~ = trill


I can't figure out the open riff where the ?'s are noted


Guitar 1 (played throughout intro)
e|---------------------------------------?------------| 
B|---------------------------------------?------------| 
G|---------------------------------------?------------| 
D|-1-0-0-0--1-1-/-3-3-0--1-3-1-0--0--0----------------| 
A|-1-0-0-0--1-1-/-3-3-0--1-3-1-0--0--0----------------| 
D|-1-0-0-0--1-1-/-3-3-0--1-3-1-0--0--0----------------|
      pm             pm          pm



Guitar 2 (comes in after part one is played 4x)

        ~~~~                      ~~~~                  tr~~~~
e|-------------------------------------------------------------------------|
B|--*----------7-8-7h8p7------*--------------------------------------------|
G|--6b7-7----8-----------8----6b7-7----7-7-7/6-6/3-3/2--2-(3)--------------|
D|-------------------------------------------------------------------------|
A|-------------------------------------------------------------------------|
D|-------------------------------------------------------------------------|


         ~~~~                                           ~~~~
e|-----------------------------------------------------------------|
B|--*----------7-8-8-10--11-10-8--10-8-7--8-7-------*--------------|
G|--6b7-7-------------------------------------8-----6b7-7----------|
D|-----------------------------------------------------------------|
A|-----------------------------------------------------------------|
D|-----------------------------------------------------------------|

Tap to rate this tab
 
# A B C D E F G H I J K L M N O P Q R S T U V W X Y Z