Bad Seed - Nothing Is Real tab

This is the main riff played throughout the song.

http://www.myspace.com/badseedpa

e|------------------------------------------|
B|------------------------------------------|
G|------------------------------------------|
D|------------------------------------------|
A|-------9--6-----6--5-----3--5----6-5-3-5--|
D|-0-0-0-------0--------0--------0----------|



e|-------------------------------------------------|
B|-------------------------------------------------|
G|--------------------------------------8888-------|
D|--------------------------------------8888-------|
A|------- 9--6-----6--5-----3--5--------6666-------|
D|--0-0-0-------0--------0--------0-0--------------|
Tap to rate this tab
 
# A B C D E F G H I J K L M N O P Q R S T U V W X Y Z