Song name
# A B C D E F G H I J K L M N O P Q R S T U V W X Y Z

Bad Seed - Real Rain Pours tab

BAD SEED - REAL RAIN POURS

PH = Pinched harmonic

e|----------------------|
b|----------------------|
G|----------------------|
D|----------------------| x3
A|-0-0-0000-4p301/3-1/3-|
D|-0-0-0000-4p301/3-1/3-|
       PMPM

e|---------------------------|
b|---------------------------|
G|-77777777-8888888-11h12p11-|
D|-77777777-8888888----------|
A|-55555555-6666666----------|
D|---------------------------|

e|----------------------|
b|----------------------|
G|----------------------|
D|----------------------| x3
A|-0-0-0000-4p301/3-1/3-|
D|-0-0-0000-4p301/3-1/3-|
       PMPM

e|---------------------------|
b|---------------------------|
G|-77777777-8888888-11h12p11-|
D|-77777777-8888888----------|
A|-55555555-6666666----------|
D|---------------------------|

e|----------------------|
b|----------------------|
G|-11h12p11----11-------|
D|----------13----12PH--|
A|----------------------|
D|----------------------|

------------------------------------------

e|---------------------------------------|
b|---------------------------------------|
G|---------------11h12p11----------------|
D|-0----------------------13-12-13-12----|
A|-0-0-0-0-0-0-0----------------------15-|
D|-0-0-0-0-0-0-0-------------------------|
     P M P M P M

e|-------------------------------|
b|-------------------------------|
G|-------------------------------|
D|-1---------------------8-7-5-7-|
A|-1-1-1-1-1-1-1-1-1-1-1-6-5-3-5-|
D|-1-1-1-1-1-1-1-1-1-1-1---------|
     P M P M P M P M P M

e|---------------------------------------|
b|---------------------------------------|
G|---------------11h12p11----------------|
D|-0----------------------13-12-13-12----|
A|-0-0-0-0-0-0-0----------------------15-|
D|-0-0-0-0-0-0-0-------------------------|
     P M P M P M

e|----------------------|
b|----------------------|
G|-7--8--7--5--7--8--11-|
D|-5--6--5--3--5--6--11-|
A|-5--6--5--3--5--6--9--|
D|----------------------|

whole section x2
------------------------------------

e|--------------------------------|
b|--------------------------------|
G|--------------------------------|
D|-7-8-7-10-7-8-7-11-11-10-8-10-7-|
A|-5-6-5-8--5-6-5-9--9--8--6-8--5-|
D|--------------------------------|

e|---------------------------------|
b|---------------------------------|
G|---------------------------------|
D|---------------------------------|
A|-0-0-0-0-0-0-0-0-0-0-0-0-0-0-0-0-|
D|-0-0-0-0-0-0-0-0-0-0-0-0-0-0-0-0-|
   P M P M P M P M P M P M P M P M

whole section x2
-------------------------------------

e|--------------------------------|
b|--------------------------------|
G|--------------------------------|
D|-7-8-7-10-7-8-7-11-11-10-8-10-7-|
A|-5-6-5-8--5-6-5-9--9--8--6-8--5-|
D|--------------------------------|

------------------------------------------

e|---------------------------------------|
b|---------------------------------------|
G|---------------11h12p11----------------|
D|-0----------------------13-12-13-12----|
A|-0-0-0-0-0-0-0----------------------15-|
D|-0-0-0-0-0-0-0-------------------------|
     P M P M P M

e|-------------------------------|
b|-------------------------------|
G|-------------------------------|
D|-1---------------------8-7-5-7-|
A|-1-1-1-1-1-1-1-1-1-1-1-6-5-3-5-|
D|-1-1-1-1-1-1-1-1-1-1-1---------|
     P M P M P M P M P M

e|---------------------------------------|
b|---------------------------------------|
G|---------------11h12p11----------------|
D|-0----------------------13-12-13-12----|
A|-0-0-0-0-0-0-0----------------------15-|
D|-0-0-0-0-0-0-0-------------------------|
     P M P M P M

e|----------------------|
b|----------------------|
G|-7--8--7--5--7--8--11-|
D|-5--6--5--3--5--6--11-|
A|-5--6--5--3--5--6--9--|
D|----------------------|

whole section x2
----------------------------------------

e|---------------------|
b|---------------------|
G|---------------------|
D|-------7-------------| x3
A|-0-0-0-5-0-0-0-0-000-|
D|-0-0-0---0-0-0-0-000-|
   PMP M   P M P M P M

e|------------------|
b|------------------|
G|------------------|
D|-7-12-11-8-7-8-11-|
A|-5-10-9--6-5-6-9--|
D|------------------|

e|---------------------|
b|---------------------|
G|---------------------|
D|-------7-------------| x3
A|-0-0-0-5-0-0-0-0-000-|
D|-0-0-0---0-0-0-0-000-|
   PMP M   P M P M P M

e|------------------|
b|------------------|
G|------------------|
D|-7-12-11-8-5-7-8--|
A|-5-10-9--6-3-5-6--|
D|------------------|

------------------------------------

e|--------------------------------|
b|--------------------------------|
G|--------------------------------|
D|-7-8-7-10-7-8-7-11-11-10-8-10-7-|
A|-5-6-5-8--5-6-5-9--9--8--6-8--5-|
D|--------------------------------|

e|---------------------------------|
b|---------------------------------|
G|---------------------------------|
D|---------------------------------|
A|-0-0-0-0-0-0-0-0-0-0-0-0-0-0-0-0-|
D|-0-0-0-0-0-0-0-0-0-0-0-0-0-0-0-0-|
   P M P M P M P M P M P M P M P M

whole section x3
------------------------------------

e|--------------------------------|
b|--------------------------------|
G|--------------------------------|
D|-7-8-7-10-7-8-7-11-11-10-8-10-7-|
A|-5-6-5-8--5-6-5-9--9--8--6-8--5-|
D|--------------------------------|
   P M P M  P M P M  PM PM P M PM

e|---------------------|
b|---------------------|
G|---------------------|
D|-------7-------------| x3
A|-0-0-0-5-0-0-0-0-000-|
D|-0-0-0---0-0-0-0-000-|
   PMP M   P M P M P M

e|------------------|
b|------------------|
G|------------------|
D|-7-12-11-8-7-8-11-|
A|-5-10-9--6-5-6-9--|
D|------------------|

e|---------------------|
b|---------------------|
G|---------------------|
D|-------7-------------| x3
A|-0-0-0-5-0-0-0-0-000-|
D|-0-0-0---0-0-0-0-000-|
   PMP M   P M P M P M

e|------------------|
b|------------------|
G|------------------|
D|-7-12-11-8-5-7-8--|
A|-5-10-9--6-3-5-6--|
D|------------------|

END
Tap to rate this tab
 
# A B C D E F G H I J K L M N O P Q R S T U V W X Y Z