Song name
# A B C D E F G H I J K L M N O P Q R S T U V W X Y Z

Bad Things - Caught Inside tab

Bad Things - Caught Inside

The guitar parts aren't easy to hear in this song but everything I have tabbed here is 
in it

Intro

Lead

-----------------------------     ----------------------------|
-----------------------------     ----------------------------|
-10-10---------6-6-10(x7)-13-     10-10---------6-6-10(x8)----|
-------6-6-8-8--------------- x3  ------6-6-8-8---------------|
-----------------------------     ----------------------------|
-----------------------------     ----------------------------|

Rhythm

-9-------9-------9-------9-------|
-9-------9-------9-------11------|
-10------11(x16)-10------11(x16)-|
-11(x16)-11------11(x16)-11------|
-11------9-------11------9-------|
-9---------------9---------------|

Verse (Chord names above are to help show the timing for the lead part)

Lead
 C#      F#               C#               F#
-9-------9----------------9------9-99------9---------|
-9-------11---------------9------9-99------11--------|
-10------11(x8)-11-11-----10----------10---11(x16)---|
-11(x16)-11-----------11--11(x16)----------11--------|
-11------9----------------11---------------9---------|
-9------------------------9--------------------------|

 C#       F#              C#       F#      G#
-9--------9-----9---------9--------9-------11--------|
-9--------11----9---------9--------11------13--------|
-10-------11----11(x8)----10-------11(x8)--13(x16)---|
-11(x16)--11----11--------11(x8)---11------13--------|
-11-------9-----9---------11-------9-------11--------|
-9------------------------9--------------------------|

Rhythm

 C#  F#  C#  F#      C#      F#     C#      F#      G#
-4---2---4---2-------4-------2------4-------2-------4-------|
-6---2---6---2-------6-------2------6-------2-------4-------|
-6---3---6---3-------6(x16)--3------6(x8)---3-------5-------|
-6---4---6---4(x16)--6-------4(x16)-6-------4(x8)---6(x16)--|
-4---4---4---4-------4-------4------4-------4-------6-------|
-----2-------2---------------2--------------2-------4-------|

Pre Chorus (Why did you wait so long. when were you planning on saying ?)

Lead

-9----9-----8----9----8-----8-----9-----9------11------9------11-------|
-11---9-----9----11---9-----9-----11----9------13------11-----13-------|
-11---10----8----11---10----8-----11----10-----13(x3)--11(x8)-13(x8)---|
----------------------------------------11(x5)-13------11-----13-------|
----------------------------------------11-----11------9------11-------|
----------------------------------------10-----------------------------|

Rhythm

-2----4----4----2----4----4----2-------6------4------2------4-------|
-2----6----4----2----6----6----2-------6------4------2------4-------|
-3----6----5----3----6----6----3-------6(x5)--5------3------5-------|
-4----6----6----4----6----6----4(x8)---6------6(x3)--4(x8)--6(x8)---|
-4----4----6----4----4----6----4-------4------6------4------6-------|
-2---------4----2---------4----2--------------4------2------4-------|

Chorus

Lead (Harder Version but sounds exact)

-13p9------13p9--13p9------13p9--13p9------|
-9------9--9-----9------9--9-----9------9--|
------10--------------10--------------10---| x4
-------------------------------------------|
-------------------------------------------|
-------------------------------------------|

-13p9------13p9--13p9------13p9--13p9------     --9--------|
-9------9--9-----9------9--9-----9------9--     --11(x8)---|
------10--------------10--------------10--- x3  --11-------|
-------------------------------------------     -----------|
-------------------------------------------     -----------|
-------------------------------------------     -----------|

Lead (Easy version, still sounds alright)

-13------13------13------9-------|
-14(x8)--14(x8)--14(x8)--11(x8)--|
-13------13------13------11------|
---------------------------------| x2
---------------------------------|
---------------------------------|

Rhythm

-4------4-------2------4------4------6-------2-------4------4-------|
-6------4-------2------6------4------6-------2-------6------4-------|
-6(x8)--5-------3------6(x4)--5------7-------3-------6(x8)--5-------|
-6------6(x8)---4(x8)--6------6(x4)--8(x8)---4(x8)---6------6(x8)---|
-4------6-------4------4------6------8-------4-------4------6-------|
--------4-------2-------------4------6-------2--------------4-------|

After Chorus

Lead

---------------------------------------------------------|
---------------------------------------------------------|
-10-10---------6-6-10(x7)-13-10-10---------6-6-10(x8)----|
-------6-6-8-8---------------------6-6-8-8---------------|
---------------------------------------------------------|
---------------------------------------------------------|

Rhythm

-9-------9-------9----|
-9-------9-------9----|
-10------11(x16)-10---|
-11(x16)-11------11---|
-11------9-------11---|
-9---------------9----|

"Somebody's road to roam, is another mans home"

Lead

---------------------------------------------------|
---------------------------9-------7------9--------|
-10-10---------6-6-10(x8)--10(x8)--6(x8)--8(x16)---|
-------6-6-8-8-------------11------8------10-------|
---------------------------------------------------|
---------------------------------------------------|

Rhythm

-2-------4------2-------4--------|
-2-------6------2-------4--------|
-3-------6(x8)--3-------5--------|
-4(x16)--6------4(x8)---6(x16)---|
-4-------4------4-------6--------|
-2--------------2-------4--------|

Pre Chorus

Lead

-9----9-----8----9----8-----8-----9-----9------11------9------11-------|
-11---9-----9----11---9-----9-----11----9------13------11-----13-------|
-11---10----8----11---10----8-----11----10-----13(x3)--11(x8)-13(x8)---|
----------------------------------------11(x5)-13------11-----13-------|
----------------------------------------11-----11------9------11-------|
----------------------------------------10-----------------------------|

Rhythm

-2----4----4----2----4----4----2-------6------4------2------4-------|
-2----6----4----2----6----6----2-------6------4------2------4-------|
-3----6----5----3----6----6----3-------6(x5)--5------3------5-------|
-4----6----6----4----6----6----4(x8)---6------6(x3)--4(x8)--6(x8)---|
-4----4----6----4----4----6----4-------4------6------4------6-------|
-2---------4----2---------4----2--------------4------2------4-------|

Chorus

Lead (Harder Version but sounds exact)

-13p9------13p9--13p9------13p9--13p9------|
-9------9--9-----9------9--9-----9------9--|
------10--------------10--------------10---| x4
-------------------------------------------|
-------------------------------------------|
-------------------------------------------|

-13p9------13p9--13p9------13p9--13p9------     --9--------|
-9------9--9-----9------9--9-----9------9--     --11(x8)---|
------10--------------10--------------10--- x3  --11-------|
-------------------------------------------     -----------|
-------------------------------------------     -----------|
-------------------------------------------     -----------|

Lead (Easy version, still sounds alright)

-13------13------13------9-------|
-14(x8)--14(x8)--14(x8)--11(x8)--|
-13------13------13------11------|
---------------------------------| x2
---------------------------------|
---------------------------------|

Rhythm

-4------4-------2------4------4------6-------2-------4------4-------|
-6------4-------2------6------4------6-------2-------6------4-------|
-6(x8)--5-------3------6(x4)--5------7-------3-------6(x8)--5-------|
-6------6(x8)---4(x8)--6------6(x4)--8(x8)---4(x8)---6------6(x8)---|
-4------6-------4------4------6------8-------4-------4------6-------|
--------4-------2-------------4------6-------2--------------4-------|

Break

Lead

-13---9----9----11---------6-------11------6-------9--------|
-14---11---9----13----9----7-------13------7-------11-------|
-15---11---10---13----10---8-(x8)--13(x8)--8(x8)---11(x8)---|
-15---11---11---13-10-11---8-------13------8-------11-------|
-13---9----11---11---------6-------11------6-------9--------|
-----------9------------------------------------------------|

Rhythm

-6----9----4----4----6---4---6-----9--------|
-6----11---6----4----7---4---7-----11-------|
-6----11---6----5----8---5---8(x8)-11(x8)---|
-8----11---6----6----8---6---8-----11-------|
-8----9----4----6----6---6---6-----9--------|
-6--------------4--------4------------------|

Chorus

Lead (Harder Version but sounds exact)

Play this whole part twice

-13p9------13p9--13p9------13p9--13p9------|
-9------9--9-----9------9--9-----9------9--|
------10--------------10--------------10---| x4
-------------------------------------------|
-------------------------------------------|
-------------------------------------------|

-13p9------13p9--13p9------13p9--13p9------     --9--------|
-9------9--9-----9------9--9-----9------9--     --11(x8)---|
------10--------------10--------------10--- x3  --11-------|
-------------------------------------------     -----------|
-------------------------------------------     -----------|
-------------------------------------------     -----------|

Lead (Easy version, still sounds alright)

-13------13------13------9-------|
-14(x8)--14(x8)--14(x8)--11(x8)--|
-13------13------13------11------|
---------------------------------| x4
---------------------------------|
---------------------------------|

Rhythm

-4------4-------2------4------4------6-------2-------4------4-------|
-6------4-------2------6------4------6-------2-------6------4-------|
-6(x8)--5-------3------6(x4)--5------7-------3-------6(x8)--5-------|
-6------6(x8)---4(x8)--6------6(x4)--8(x8)---4(x8)---6------6(x8)---| x2
-4------6-------4------4------6------8-------4-------4------6-------|
--------4-------2-------------4------6-------2--------------4-------|

Ending

Lead

---------9----9---------|
---------11---9---------|
-8-8-8---11---10--------|
---------11---11--------|
---------9----11--------|
--------------9---------|

Rhythm

-4----4----4------------|
-6----6----6------------|
-6----5----6------------|
-6----6----6------------|
-4----6----4------------|
------4-----------------|
Tap to rate this tab
 
# A B C D E F G H I J K L M N O P Q R S T U V W X Y Z