Song name
# A B C D E F G H I J K L M N O P Q R S T U V W X Y Z

Baden Powell De Aquino - Retrato Brasileiro Brazilian Portrait tab

tuning - E A D G B E    key - Em (1-17), E (18-37)     time - 2/4

playing order - measures 1-16,1-15,17,18-33,18-32,34,1-15,35-37

Adagio

1     |   .   |   .     |   .   |   .     |   .   |   .     |   .   |   .
  ||------------------|-----------------|-----------------|-0---------------|
  ||--0-----------1-0-|-0-----------1-0-|-0-----------1-0-|-------0---------|
  ||*-------0---------|-------2---2-----|-------2-1-------|-----0-------0---|
  ||*-----2-----2-----|-----2---1-------|-----0---0-------|---2-------2---2-|
  ||----2-----2-------|-----------------|-----------------|-4-------4-------|
  ||--0---------------|---2-------------|---2-----0-------|-----------------|

                                  cII   CII                         CIV
5   |   .   |   .     |   .   |   .       |   .   |   .     |   .   |   .
  |-----------------|-----------0-2-3-|-232---------------|-------2-7-----7-|
  |-0-----------0---|-3-------3-------|---------4-4-----2-|-2---4-------4---|
  |-----2---------2-|-------0-0-------|-------4-------3---|---4---------4---|
  |---2---2---0-----|-----0---0-------|-----4-------2-----|-----------4-----|
  |-0---------------|---2-----2-------|---2---------------|-2---------------|
  |---------2-------|-3-------3-------|-----------2-------|-----------------|

          
9   |   .   |   .     |   .   |   .     |   .   |   .     |   .   |   .
  |-----------------|-----------------|-----------------|-0-------0-------|
  |-0-----------1-0-|-0-----------1-0-|-0-----------1-0-|-------0---------|
  |-------0---------|-------2---2-----|-------2-1-------|-----0-------0---|
  |-----2-----2-----|-----2---1-------|-----0---0-------|---2-------2---2-|
  |---2-----2-------|-----------------|-----------------|-4-------4-------|
  |-0---------------|---2-------------|---2-----0-------|-----------------|

                                                        $ 1________________
13  |   .   |   .     |    .   |   .     |   .   |   .     |   .   |   .
  |-0-----------2-3-|-2020-------------|-----------------|------------------||
  |-----------------|------0---3-----1-|-0---------------|-------------1----||
  |-----2-----0-----|--------0-----0---|-------2-0-------|-------0-----2---*||
  |---2---2---------|------------2-----|-----1-------1-4-|-2---2-----1---1-*||
d |-0-------1-------|--2-------3-------|-----------2-----|---2--------------||
  |-----------------|------------------|---2-------------|-0-------2--------||

   2________________                     CII
17  |   .   |   .       |   .   |   .     |   .   |   .     |   .   |   .
  |-----------------||---------------24-|-4-------2-----4-|-4-------2-----4-|
  |-----0-----------||--------0-----0---|-----2-------2---|-----4-------4---|
  |---------3---2---||*-1-2-3-----1-----|---3---3---3---3-|---4---4---4-----|
  |-2-----------1---||*---------2-------|-2-------2-------|-----------------|
  |-----------------||------------------|-----------------|-0-------0-------|
  |-0-----------2---||--0---------------|-----------------|-----------------|

                               _____
21  |   .   |   .     |   .   |  .  .   |   .   |   .     |   .   |   .
  |-2-------0-------|------------0----|-----------------|---3-----2-------|
  |-----0-------0---|---------0-----0-|-3-------1-------|---------------5-|
  |---1---1---1---1-|-------0---------|-------0-----0---|-------1-----1---|
  |-----------------|---1-3-----------|-----2-----2---2-|-----2-----2-----|
  |-----------------|-----------------|---3-----3-------|-1-------1-------|
  |-0-------0-------|-1---------------|-0---------------|-----------------|

25  |   .   |   .     |   .   |   .     |   .   |   .     |   .   |   .
  |-----------------|--------------24-|-4-------2-----5-|-5-------4-----2-|
  |-5-----4-4-------|-------0-----0---|-----2-------2---|-----4-------4---|
  |-----4-------4---|-1-2-3-----1-----|---3---3---3-----|---2---2---2-----|
  |---4-------4---4-|---------2-------|-2-------2-------|-----------------|
  |-0-------0-------|-----------------|-----------------|-3-------3-------|
  |-----------------|-0---------------|-----------------|-----------------|

                      cV                cIV               CII
29  |   .   |   .     |   .   |   .     |   .   |   .     |   .   |   .
  |-2-------1----47-|-7-------5-------|-4-9---7---0-----|-4-------2-------|
  |-----0-------0---|-----5---5---5---|-5-------9---2-0-|-----2-------4---|
  |---1---1---1-----|---6---6-5-5---5-|-4---------------|---3---3---2---2-|
  |-0-------0-------|-----------------|-----------------|-----------------|
  |-----------------|-0-------0-------|-----------------|---------2-------|
  |-----------------|-----------------|-0---------------|-2---------------|

   1________________     DC al $ et CODA
33  |   .   |   .       |   .   |   .
  |-0----------------||-0---------------|
  |---------0-----0--||-------------1---|
  |-------1-----1---*||-------0-----2---|
  |-----4-----4-----*||-----2-----1---1-|
  |---2--------------||---2-------------|
  |-0----------------||-0-------2-------|

   CODA    arp                                 arp
35  |   .   |   .     |   .   |   .     |   .   |   .
  |-------0---------|-------------3-1-|-0---------------||
  |-----0---3-1-----|-0---------0-----|--------20-------||
  |---------0---0-2-|---------2-------|---------1-------||
  |-2-------2-------|-------3---------|---------2-------||
  |---------3-------|-----3-----------|---------2-------||
  |-0---------------|---1-------------|---------0-------||
Tap to rate this tab
# A B C D E F G H I J K L M N O P Q R S T U V W X Y Z