Song name
# A B C D E F G H I J K L M N O P Q R S T U V W X Y Z

Badfinger - Babyblue tab

Received: from animal-farm.nevada.edu by redrock.nevada.edu (5.65c/M1.4)
	with SMTP id ; Fri, 2 Apr 1993 18:12:27 -0800
Received: from rcwgwy.bp.com by animal-farm.nevada.edu id ; Fri, 2 Apr 1993 18:12:24 -0800
Received: by rcwgwy.bp.com (5.57/Ultrix3.0-C)
	id AA00603; Fri, 2 Apr 93 21:13:23 -0500
From: vegeaisj@rcwcl1.dnet.bp.com
Message-Id: <9304030213.AA00603@rcwgwy.bp.com>
Date: Fri, 2 Apr 93 21:13:34 -0500
To: <<@20.tab>
Cc: VEGEAISJ@rcwgwy.bp.com
Subject: TAB: Baby Blue - Badfinger

Baby Blue by Badfinger
trans. Jim Vegeais (vegeaisj@rcwcl1.dnet.bp.com)


Capo on 5th fret
^^^^^^^^^^^^^^^^

intro
----------------------------------------------------------------------
--------0-------0--1--0--1--0----------0------------------------------
--------0-------0--0--0--0--0----------0------------------------------
-----0----------0--0--0--0--0-------0----------------0----------------
-----------------------------------------------0--2-----3--2--0-------
--3----------3-------------------3----------3--------------------3----


verse
|---2--2--2-----2--2--2-----0--0--0----------------------------------
|---3--3--3-----3--3--3-----1--1--1----------------------------------
|---2--2--2-----2--2--2-----0--0--0-----------0-----------0----------
|---0--0--0-----0--0--0-----2--2--2--------2-----2-----0-----0-------
|---------------------------3--3--3-----3-----------2----------------
|--------------------------------------------------------------------


---1--1--1-----0--0--0----------------------------------------------|
---2--2--2-----1--1--1-----------0----------------------------------|
---3--3--3-----0--0--0-----------0----------------------------------|
---3--3--3-----2--2--2--------0-----------------0-------------------|
---------------3--3--3--------------------0--2-----3--2--0----------|
---------------------------3-----------3--------------------3-------|
repeat


--2--2--2--------------------------------0--0--0-----0--0--0--------
--3--3--3--------------------------------1--1--1-----1--1--1--------
--2--2--2--------------2--0--------------2--2--2-----0--0--0--------
--0--0--0-----0--2--4--------4--2--0-----2--2--2-----2--2--2--------
-----------------------------------------0--0--0-----0--0--0--------
--------------------------------------------------------------------


--------------------0--------3--3--
-----------1-----------1-----1--1--
--------0-----0-----------0--0--0--
-----2-----------2-----------2--2--
--3--------------------------------
-----------------------------------
then repeat intro



bridge chords
--2--2--2--2--0--0--0--0--0--0--0--0---0--0--0--0--
--3--3--3--3--0--0--0--0--0--0--0--0---1--1--1--1--
--4--4--4--4--0--0--0--0--0--0--0--0---2--2--2--2--
--4--4--4--4--2--2--2--2--1--1--1--1---2--2--2--2--
--2--2--2--2--2--2--2--2--2--2--2--2---0--0--0--0--
---------------------------------------------------

                                 *
--0--0--0--0-----1---1-----0--0-----------------------------------------
--1--1--1--1-----1---1-----1--1------------0----------------------------
--0--0--0--0-----2---2-----0--0------------0----------------------------
--2--2--2--2-----3---3-----2--2---------0----------------0--------------
-----------------3---3-----3--3--------------------0--2-----3--2--0-----
--3--3--3--3-----1---1---------------3----------3--------------------3--
repeat, but at * continue to solo


solo rhythm part
---1--1--1--1--3--3--3--3--
---3--3--1--1--5--5--3--3--
---3--3--2--2--5--5--4--4--
---3--3--3--3--5--5--5--5--
---1--1--3--3--3--3--5--5--
---------1--1--------3--3--
repeat


solo
------------------------1-----------------------------------------
---------------------------3--1--3b(5)--3b(5)--3b(5)b3--1---------
--5b(7)--5b(7)b5--3--2-------------------------------------2b(4)--
------------------------------------------------------------------
------------------------------------------------------------------
------------------------------------------------------------------


-------------------------------------------8--10b(12)--10b(12)--
---------------------------------------10-----------------------
--9b(10)--9b(10)--9b(10)b9--7------10---------------------------
-------------------------------10-------------------------------
----------------------------------------------------------------
----------------------------------------------------------------


--10b(12)b10--8--13b(15)---
---------------------------
---------------------------
---------------------------
---------------------------
---------------------------



end rhythm part
--------------------------------------------
-----------0--------------------0-----------
--------0-----0-----0--------0-----0-----0--
-----0-----------0--------0-----------0-----
--------------------------------------------
--3--------------------3--------------------


-----------------------------------------------
-----------1-----------------------------------
--------2-----2-----2--------2-----------0-----
-----2-----------2--------2-----2-----2-----2--
--0--------------------0-----------------------
-----------------------------------3-----------


-----------------------------------------------
--------------------------------1-----------0--
-----------2-----------------0-----0-----0--0--
--------3-----3-----3-----2-----------2-----0--
-----3-----------3-----3-----------------------
--1-----------------------------------------3--


end lead part
-------------------------------------------
----------------------------8--8--10b(12)--
----------------------7--5-----------------
------------/7--7--5-----------------------
-----/5--3---------------------------------
--1----------------------------------------
Tap to rate this tab
 
# A B C D E F G H I J K L M N O P Q R S T U V W X Y Z