Song name
# A B C D E F G H I J K L M N O P Q R S T U V W X Y Z

Badly Drawn Boy - I Love You All tab

-------------------------------------------------------------------------------
                       I LOVE YOU ALL - Badly Drawn Boy
-------------------------------------------------------------------------------
Tabbed by: Erik Silkensen
Email: erik.silkensen@gmail.com

Tuning: Standard

Notes: You can probably figure out the picking by ear (alternating Em and Asus2
I think, ending on Em), but here's a start (based on a live performance):

e|---------------------------------------------------------------------------|
B|--------------0-----------------0-----------------0------------------------|
G|-----------0-----------------2--------0--------0-----------2------0--------|
D|--------2-----------2-----2--------0--------2-----------2------------------|
A|-----------------------0---------------------------------------------------|
E|-----0-----------0-----------------------0-----------0---------------------|

Repeat for the whole song.

Lyrics:

Don't be said when it lasts so long
I felt so right even while
I was under helium sky
You blow away
I...

I don't even ask you why
You go away
Cry, cry, cry

'Cos this season, this season
This season, this season
I love you all, love you all
I love you all, love you all
I love you all, I love you all
Tap to rate this tab
 
# A B C D E F G H I J K L M N O P Q R S T U V W X Y Z