Song name
# A B C D E F G H I J K L M N O P Q R S T U V W X Y Z

Badly Drawn Boy - Ill Keep The Things You Throw Away tab

3/4 or 6/8 Timing
Riff 1
C       Am              G       Am
--0-----0-------0---------------0-------0--------|
3-------1-------1-------1-0-----1-------1--------|
0----0--2-------2-------0-0-----2-------2--------|
2-------2-------2---------------2-------2--------|
3-------0-------0-------2-------0-------0--------|
------------------------3------------------------|


Riff 2
C               F               G               C
----------------------------------------------------|
3--> 1----------0--> 1----1-----1--> 0---0------1---|
0--------0----------------2-----0--------0------0---|
2---------------3---------------0---------------2---|
3---------------3---------------2---------------3---|
----------------1---------------3-------------------|


Riff 3
Am      F       G       C       Am      F       G       C
3-------0-----------0---0-------3-------0-------------------|
1-------1-------3-------1-------1-------1-------3---1---1---|
2-------2-------0-------0-------2-------2-------0-------0---|
2-------3-------0-------2-------2-------3-------0-------2---|
0-------3-------2-------3-------0-------3-------2-------3---|
--------1-------3-----------------------1-------3-----------|

Intro
Riff 1 twice
Riff 2 twice   C   C

C               F       G       C
How would it feel to never exist
C       F       G       C
And how did it come to this
C               F       G       C
Save your thoughts for another day
C               F       G       C       C
I'll keep the things you throw away


Em      F       G       C       Em      F       G       C
If you love     some    thing,  if you love     some    thing
G               F       Em              F
Don't hide it away,     don't hide it   away
G                       Riff 2
I'll keep the things you throw away


C       F               G       C
And you know you will never be me
C       F       G       C
Save it all as a memory
C          F            G       C
It's in the things we do and say
C               F       G       C       C
I'll keep the things you throw away


Em      F       G       C       Em      F       G       C
If you love     some    thing,  if you love     some    thing
G               F       Em              F
Don't hide it away,     don't hide it   away
G                       Riff 2
I'll keep the things you throw away


Riff 3


(Riff 1) C      Am              G       Am
It would-a-been something, maybe nothing
C       Am              G       Am
Maybe something, I don't know


(Light strum)
Am              Am/B    C       G
(?)How there you lovers
Am              Am/B    G
Welcome to this world
Am              Am/B    C       G
Do not forsake your brothers
Am              Am/B    G
Promise you my girl
        F       Em      F       Riff 2
This is something you'll learn


C            F          G               C
See those words, watch them fade away
C       F       G       C
Now I have nothing to a-say
C           F      G         C
Come on wait for another day
C               F       G       C
I'll keep the things you throw away


Em      F       G       C       Em      F       G       C
If you love     some    thing,  if you love     some    thing
G               F       Em              F
Don't hide it away,     don't hide it   away
G                       Riff 2
I'll keep the things you throw away


Riff 1 cont.
I though we were better than this
Thought we'de be stronger than this
I though we were better than this
Thought we'de be stronger than this
I though we were better than this
I hoped we'de be stronger than this
I though we were better than this
Tap to rate this tab
# A B C D E F G H I J K L M N O P Q R S T U V W X Y Z