Song name
# A B C D E F G H I J K L M N O P Q R S T U V W X Y Z

Badly Drawn Boy - Everybodys Stalking tab

Help us improve GuitareTab! Take a short survey!
this is my first tab it may not be exact but close


standard tuning, electric or acoustic


     f#     D     Em
e|---2-2----2-2---0---|
b|---2-2----3-3---0---|
g|---3-3----2-2---x---|
d|---4-4----0-0---2---|
a|---4-4----------2---|
E|---2-2--------------|

this part you kinda have to wiggle your fingers
e|------------------------------|
b|------------------------------|
g|---3-4-2------3-4-7-4-3-4-2---|
d|------------------------------|
a|------------------------------|
E|------------------------------|

Related for Everybodys Stalking tab