Guitaretab - guitar tabs
Song name
# A B C D E F G H I J K L M N O P Q R S T U V W X Y Z

Bag Of Toys - Surf Song tab

Song: Surf Song
Band: Bag of Toys
Tabbed by: O-52-A-50-R

*I havenít heard of this band till just today, this song is pretty good so I figured Iíd 
it. This is the only tab with all of the parts in it.

RHYTHM GUITAR:

D, A, G, A (This applies to both verse and chorus)


LEAD GUITAR:

Intro solo

|-------------------------------------------------------|
|-------------------------------------------------------|
|----7-----7--------------------------------------------|
|7/9---7/9---9-9-7-7-----7------------------------------|
|--------------------7/9---9-7-----------5h7-7br-7---7--|
|------------------------------10-10-5h7-----------5----|


lead

|14p12-------12-14-12--------14p12-------12---------------|
|------12-15----------15-12--------12-15----15-10h12p10---|
|---------------------------------------------------------|
|---------------------------------------------------------|
|---------------------------------------------------------|
|---------------------------------------------------------|

[ Tab from: http://www.guitaretab.com/b/bag-of-toys/101420.html ]
|14p12-------12-14-12---------------------------|
|------12-15----------15-12-10h12-10------------|
|---------------------------11-------11---------|
|---------------------------------------12-12---|
|-----------------------------------------------|
|-----------------------------------------------|

Solo

|10/12-12-12-10----------------------------------------|
|10/12-12-12-10------10--------------------------------|
|---------------9/11----11-9---------------------------|
|----------------------------12-9-12-----7---7---------|
|------------------------------------7/9---9---9-8-7-5-|
|------------------------------------------------------|

|----------------------------------------------------------------------------|
|----------------------------------------------------------------------------|
|----------------7-9-7------------------------------------7-9-7-9-9b-9-7---7-|
|------------7h9--------------------------------------7h9----------------9---|
|----5-7-7/9---------------5-7-7/9-7-5---5------5h7/9------------------------|
|5-7-------------------5/7-------------7----5h7------------------------------|

|------------10-12-12/14-------------------------------|
|-----10-12--------------15-12-15-12-10h12-10----------|
|9/11--------------------------------11-------11-------|
|------------------------------------------------12-12-|
|------------------------------------------------------|
|------------------------------------------------------|
Related for Surf Song tab