Song name
# A B C D E F G H I J K L M N O P Q R S T U V W X Y Z

Bagaz - Neobicna chords

Highlighted       Show chord diagrams
-------------------------------------------------------------------------------
			     NEOBICNA - Bagaz
-------------------------------------------------------------------------------
Tabbed by: Martin Petkovski
Email:chill.bt@live.com

Tuning:Standard

Intro: (se sviri dva pati i prodolzuva niz cela pesna)

    E                 E                  A                 A
e|---------------------------------------------------------------------------|
B|----------0--------------------0----------------2----------------2---------|
G|------1----------1-------1-----------1-------2---------2-----2----------2--|
D|----2---2-----2--------2----2-----2-------2---2-----2------2---2-----2-----|
A|--2-----------------2-------------------0----------------0-----------------|
E|---------------------------------------------------------------------------|

E                   A
Nekoi stari, ognovi gorea,
E                      A
Nokeska mojot mir se pretvori vo zar,
E                      A
Ko lesna melodija, te pametam,
E                        A
Te nosam ko veter, ne zaboravam,

Riff: F F E x2 B B A x2 (dva pati celo)

E                  A
Nekoi luge, malku baraat,
E                  A
Se dvizat pravo i taka mirno ziveat,

Em                    Am
Gradot e brz i tezok, beskonecen svet
Em                     A
Vozduh lepliv i zezok, samo jas sum cvet

F F# G
       Neobicna devojka
F F# G 
       Vo obicna prikazna

E                           A
Sakam da znam, se da vidam, da osetam
E                              A
Silno go cuvstvuvam, bez da se odbranam,
E                              A
Sakam da znam, ete takva sum, rodena jas
E                           A
svoja i slobodna, neobicna devojka


Solo:

e|---------|
B|---------|
G|--1------|
D|----2----|
A|------2--|
E|---------| x13 i posle

e|----------------------------------|
B|--2------2--------2/3/2---7---2---|
G|----2-------2---------------------|
D|------2--------2------------------|
A|----------------------------------|
E|----------------------------------|

E                     A
Nekoi stari misli me gonea,
E                     A     
Zelibite purpurni vo moite sonista,

Em                    Am
Gradot e brz i tezok, beskonecen svet
Em                     A
Vozduh lepliv i zezok, samo jas sum cvet

F F# G
       Neobicna devojka
F F# G 
       Vo obicna prikazna

E                           A
Sakam da znam, se da vidam, da osetam
E                              A
Silno go cuvstvuvam, bez da se odbranam,
E                              A
Sakam da znam, ete takva sum, rodena jas
E                           A
svoja i slobodna, neobicna devojka

F  F  E       F F E  E       B  B  A   B B A A
Sakam da znam,  se da vidam, da osetam
F  F  E       F F E  E       B  B  A   B B A A
Silno go cuvstvuvam, bez da se odbranam,
F  F  E       F F E  E        B  B  A   B B A A
Sakam da znam, ete takva sum, rodena jas
F  F  E       F F E  E     B  B  A   B B A A
svoja i slobodna, neobicna devojka
Tap to rate this tab
 
# A B C D E F G H I J K L M N O P Q R S T U V W X Y Z