Song name
# A B C D E F G H I J K L M N O P Q R S T U V W X Y Z

Bagster - Id tab

hey one of my first tabs. sick band


Structure:

INTRO
MAIN RIFF
VERSE
CHORUS
VERSE
CHORUS
BRIDGE (INTRO AGAIN)
CHORUS X2
END

------------------------------------------------------------------------------|
------------------------------------------------------------------------------|
------------------------------------------------------------------------------|
-2-2-2-2---2-2-2-2-3-3-3-3---3-3-3-3------------------------------------------|
-2-2-2-2---2-2-2-2-3-3-3-3---3-3-3-3------------------------------------------|
-0-0-0-0---0-0-0-0-1-1-1-1---1-1-1-1------------------------------------------|
 INTRO                               Repeat this one more time then:

------------------------------------------------------------------------------|
------------------------------------------------------------------------------|
-9-8-9-8-----9-8-9-8-----10-9-10-9------10-9-10-9-----------------------------|
-x-x-x-x-9---x-x-x-x-9---x--x-x--x-10---x--x-x--x-10--------------------------|
-7-6-7-6-x---7-6-7-6-x---8--7-8--7-x----8--7-8--7-x---------------------------|
---------7-----------7-------------8--------------8---------------------------|
 Play this line twice then:

------------------------------------------------------------------------------|
------------------------------------------------------------------------------|
--9--8------9--8------10-9------10-9--10--------------------------------------|
--9--8--9---9--8--9---10-9--10--10-9--10--------------------------------------|
--7--6--9---7--6--9---8--7--10--8--7--10--------------------------------------|
--------7---------7---------8---------8---------------------------------------|
  Play this once, then the second time play:

------------------------------------------------------------------------------|
--------------------------------------------9---------------------------------|
--9--8------9--8------10-9------10-12--10---9---------------------------------|
--9--8--9---9--8--9---10-9--10--10-12--10---9---------------------------------|
--7--6--9---7--6--9---8--7--10--8--10--8----7---------------------------------|
--------7---------7---------8---------------0---------------------------------|
                                            Let this chord ring out

-0--12^-12^-12^-12^-12^-12^--0-12^12^12^12^12^12^-0-12^12^0-12^12^-0-0-0------|
------------------------------------------------------------------------------|
------------------------------------------------------------------------------|
------------------------------------------------------------------------------|
------------------------------------------------------------------------------|
------------------------------------------------------------------------------|
 This is all harmonics on the high E string

------------------------------------------------------------------------------|
--------------------------5--5--5--5--4--4--7---------------------------------|
--9--9--9--9--------------5--5--5--5--4--4--7---------------------------------|
--9--9--9--9--7--7--7--7--5--5--5--5--4--4--7---------------------------------|
--7--7--7--7--7--7--7--7--3--3--3--3--2--2--5---------------------------------|
--0--0--0--0--5--5--5--5------------------------------------------------------|
 Above is the main chords of the song really, verses included.

------------------------------------------|-----------------------------------|
--9--9--9--9--7--7--7--7--5--5--5--5--4--4|-5--5--5---7-----------------------|
--9--9--9--9--7--7--7--7--5--5--5--5--4--4|-5--5--5---7-----------------------|
--9--9--9--9--7--7--7--7--5--5--5--5--4--4|-5--5--5---7-----------------------|
--7--7--7--7--5--5--5--5--3--3--3--3--2--2|-3--3--3---5-----------------------|
--0--0--0--0------------------------------|-----------------------------------|
 Chorus is above the three chords at the end are accented.

------------------------------------------------------------------------------|
--9--7--10-0------------------------------------------------------------------|
--9--7--10-9------------------------------------------------------------------|
--9--7--10-9------------------------------------------------------------------|
--7--5--8--7------------------------------------------------------------------|
--0--------0------------------------------------------------------------------|
 These are the finishing chords at the end of the song
Tap to rate this tab
 
# A B C D E F G H I J K L M N O P Q R S T U V W X Y Z