Song name
# A B C D E F G H I J K L M N O P Q R S T U V W X Y Z

Bahamas - Already Yours tab

Band: Bahamas (http://www.myspace.com/bahamasbreeze)
Song: Already Yours
Tabb By: Ventura41

This song is amazing and I didnt find any tabs out there so heres my try, probably 
not accurate though.

Intro
C
|------0-------0--|
|------1-------1--|
|------0-------0--|
|-----------------|
|--3-------3------|
|-----------------|
(repeat)

Is it really that much sweeter
On the other end of ...

F
|------0-------0--|
|------1-------1--|
|------2-------2--|
|-----------------|
|--3-------3------|
|-----------------|

...that receiver?
There's no need to convert...

C
|------0-------0--|
|------1-------1--|
|------0-------0--|
|-----------------|
|--3-------3------|
|-----------------|

... a believer

Am-G-C
|------0-------0--| 
|------1-------1--|
|------2-------0--|
|-----------------|
|--0--------------|
|----------3------|

I'm already yours

|------0-------0--|
|------1-------1--|
|------0-------0--|
|-----------------|
|--3-------3------|
|-----------------|

I'm already yours


Solo
C
|------------0----|--3-----0-----------|
|----1---3--------|-------------3-----1|
|-----------------|--------------------|
|-----------------|--------------------|
|--3---3---3---3--|-----3-----3----3---|
|-----------------|--------------------|
(repeat)


Well I ain't that special someone
You should spend a night with a fun one
Someone who mates to become one
I'm already yours
I'm already yours

Well I always said don't mind me
But your love always seems to find me
It's always creeping up behind me
I was never yours
I was never yours 


--to you;;--
Tap to rate this tab
 
# A B C D E F G H I J K L M N O P Q R S T U V W X Y Z