Song name
# A B C D E F G H I J K L M N O P Q R S T U V W X Y Z

Bahamas - Caught Me Thinking tab

INTRO
--9-9-9---7---2-----------------------------------------|
--9-9-9---7---2-----------------------------------------|
--9-9-9---7---2-----------------------------------------|
--------------------------------------------------------|
--------------------------------------------------------|
--------------------------------------------------------|

INTO PART 2

-----7-7-7-5------9-9-9-7--------5-5-5-7----7-------------|
-----7-7-7-5------9-9-9-7--------5-5-5-7----7-------------|
-----7-7-7-6------9-9-9-7--------6-6-6-7----7-------------|  X2
--------------------------------------------7-------------|
-5---------------------------0----------------------------|
---------------0------------------------------------------|
VERSE

-------------------------------------------------------|
-------------------------------------------------------|
-------------------------------------------------------|   X2
-------------------------------------------------------|
-5-5------7-7-----------4-5-5--------------------------|
-----------------5-5-----------------------------------|


VERSE PART 2  (GUITAR 1)

-7-x-7-----9-x-9----5-x-5-5---4-5-x-5----7-x-7---9-9-9-9-9--|
-7-x-7-----9-x-9----5-x-5-5---4-5-x-5----7-x-7---9-9-9-9-9--|
-7-x-7-----9-x-9----6-x-6-6---4-7-x-7----7-x-7---9-9-9-9-9--|
-9-x-9-----9-x-9----7-x-7-7---4-7-x-7----9-x-9---9-9-9-9-9--|
-9-x-9-----9-x-9----7-x-7-7---4-5-x-5----9-x-9---9-9-9-9-9--|
-7-x-7--0-----------5-x-5-5--------------7-x-7---9-9-9-9-9--|


VERSE PART 2 (GUITAR 2) play fast and with guitar 1

-7---------9---------5---------7---------9------------|
-7-X16-----9-X16-----5--X16----7--X16----9--X10-------|
-7---------9---------6---------7---------9------------|
------------------------------------------------------|
------------------------------------------------------|
------------------------------------------------------|


Leading into the CHORUS

--------------------------------------------------------|
--2-0---------2-0---------------------------------------|
--2-0---------2-0---------------------------------------|
--2-0---------2-0---------------------------------------|
--------------------------2-0---------2-0---------------|
-------2-0----------2-0---------3-0---------2-0---------|


CHORUS

-----0----------------------2---------2-------------|
-----0----------------------2---------3-------------|
-----1----------------------2---------2-------------|
-----2----------------------4---------0-------------|
-----2----------------------4----0------------------|
-0---0--00-00-0000-00-1-2---2-----------------------|


CHORUS

-----0----------------------2----5----7------------|
-----0----------------------2----5----7------------|
-----1----------------------2----6----7------------|
-----2----------------------4----7----9------------|
-----2----------------------4----7----9------------|
-0---0--00-00-0000-00-1-2---2----5----7------------|
Tap to rate this tab
# A B C D E F G H I J K L M N O P Q R S T U V W X Y Z