Song name
# A B C D E F G H I J K L M N O P Q R S T U V W X Y Z

Bahamas - I Got You Babe tab

Hey guys, i really wanted to play this song but couldn't find any tabs, so i've tried my 
best to figure it out by watching some videos of Bahamas playing it, and this is what 
i thought sounded right. Thanks :) (solo not included)

Intro:

E|------------0-------------|
B|---------3b---------------|
G|--------------4-----2p0 --| x4
D|--------------------------|
A|---------------3-3--------|
E|---0-3-3------------------|

Verse:

E|---------3------------------3----------0-0-0------0--------3--------0---0-----------|
B|---------3------------------3----------1-1-1------0--------3--------1---1-----------|
G|---------0-------2p0--------0----------0-0-0------0--------0--------0---0-----------| x2
D|---------0------------------0----------2-2-2------2--------0--------2---2-----------|
A|---------2---3-3------------2---3-3----3-3-3------2--------2----3-3-3---3-3----3----|
E|---0-3-3-3------------0-3-3-3-----------------0-0-0----3-3-3----------------2----1--|

Chorus:

E|------------0-------------|
B|---------3b---------------|
G|--------------4-----2p0 --| x8
D|--------------------------|
A|---------------3-3--------|
E|---0-3-3------------------|
Tap to rate this tab
# A B C D E F G H I J K L M N O P Q R S T U V W X Y Z